» » »

Keepsake, One Season Too Late Tabs (ver.1)

Artists:  A B C D E F G H I J K L M N O P Q R S T U V W X Y Z # 

One Season Too Late Tabs (ver.1)

Keepsake Tabs
 Rating:
4/5 (4 votes)
One Season Too Late lessons Tabs too difficult? Try these video lessons and learn fast
                keepsake - one seasons too late


INTRO + VERSE
E :----------------|----------------|----------------|----------------|
B :----1-----1-----|3-1---------0---|--0-----3-0-----|----1-----1-----|
G :------0-----0---|----0---------0-|----0-------0---|------2-----2---|
D :--2-----2-----2-|2-----2---2-----|2-----2-2-----2-|--2-----2-----2-|
A :3---------------|--------2-------|----------------|0---------------|
E :----------------|----------------|----------------|----------------|
                                       
E :------------1---|--1-----3-1----- 1
B :3-1-----------1-|----1-------1--- |
G :----2-----2-----|2-----2-2-----2-*|
D :2-----2-3-------|----------------*|
A :----------------|---------------- |
E :----------------|---------------- |



CHORUS 2x

E :------------------|
B :1-----1-1-1-1--3--|
G :0-----0-0-0-0--0--|
D :2-----2-2-2-2--2--|
A :3-----3-3-3-3--3--|
E :------------------|

E :----------------|-----------------|------------------|
B :-1-----0-----0-0|0-0--3---0----1--|---1-1-1-1--3-----|
G :-0-----0-----0-0|0-0--0---0----2--|---2-2-2-2--2-----|
D :-2-----2-----2-2|2-2--2---2----2--|---2-2-2-2--2-----|
A :-3-----2-----2-2|2-2--2---2----0--|---0-0-0-0--0-----|
E :-------0-----0-0|0-0--0---0-------|------------------|

E :-----1----1-1-1-1-|-3-----1--------|
B :1----1----1-1-1-1-|-1-----1--------|
G :2----2----2-2-2-2-|-2-----2--------|
D :2----3----3-3-3-3-|-3-----3--------|
A :0-----------------|----------------|
E :------------------|----------------|



lyric
--------

He's in the back of your mind
all of the time
learn to forget
love. leave. forget.
And when I sit alone
I think of what you said
"better off just friends"
I'm better off just dead

And the hardest thing I do
is wake up without you
when everything falls apart
the emptiness leaves a mark
            
Submit corrections

comments powered by Disqus
↑ Back to top | Keepsake Tabs for One Season Too Late. Lyrics for acoustic guitar and electric guitar. Tablatures and chords are parodies/interpretations of the original songs. You may use it for private study, scholarship, research or language learning purposes only