» » »

Keepsake, Girls Don Know Bass tabs (ver.1)

Artists:  A B C D E F G H I J K L M N O P Q R S T U V W X Y Z # 

Girls Don Know Bass tabs (ver.1)

Keepsake Tabs
 Rating:
4/5 (4 votes)
Girls Don	 Know lessons Tabs too difficult? Try these video lessons and learn fast
1
                this is my second tab, i think its a litlle easier to read than my first one. sometimes its hard to get the timing but once you figure it out its easy.

*Guitar Intro*
After he screams "Girls Don't Know":
G-------------------------------------------------------------------------------
D---------------------------------------9999------------------------------------
A-7~--6~--4~----7~--6~--44444444---7777------66677766--44444444--66677766--7777-
E-------------------------------------------------------------------------------

G-----------------------------   
D-9999------------------------     
A------66677766--44444444--6--     
E-----------------------------     

Next Part (played as pre-verse and verse):   (X2)
G-------------------------------------------------------------------------------
D----9----9---9----9----9---9----6----6---6----6----6---6-----------------------
A-77---77---7---77---77---7---44---44---4---44---44---4------7-9-11-9-7---------
E---------------------------------------------------------55------------00000000

Chorus:   (X2)
G----------------------------------------
D----------------------------------------
A-77--7777--44--4444---------------------
E--------------------55--5555--00--0000--

Pre-verse X1
Verse X2
Chorus X2

Bridge:
G------------------        G-----------------------------------------------
D------------------  (X1)  D----------------------------------------------- (X3)
A-7~--4~-----------        A-77777777--44444444----------------------------
E---------5~--0~---        E---------------------55555555--00000000--------

Pre-verse X1
Chorus X2

Outro:
*=strum really fast untill it changes
G------------------------------------------------------------------
D------------------------------------------------------------------
A-7~--4~----------7*--4*----------7*--4*----------7~--4~-----------
E---------5~--0~----------5*--0*----------5*--0*----------5~--0~---
            
Submit corrections

comments powered by Disqus
↑ Back to top | Keepsake Bass for Girls Don Know. Lyrics for acoustic guitar and electric guitar. 1 Tablatures and chords are parodies/interpretations of the original songs. You may use it for private study, scholarship, research or language learning purposes only