» » »

Swervin In My Lane Tabs (ver.1)

Artists:  A B C D E F G H I J K L M N O P Q R S T U V W X Y Z # 

Swervin In My Lane Tabs (ver.1)

Keen Robert Earl
Rating:
0/5 (0 votes)

Hard to play? Try these video lessons and learn fast.
                Swervin' in My Lane




(Please let me know if you find the tab for the solo useful.
If so I will do it more often.)


G G A
G G A 

A                   D           A
Sometimes I don't know what I'm doing
A                       E                    A
'Cause sometimes all my days are filled with rain
A                                D                       
As I travel down life's higway, things ain't going my way
               A              E             A
'Cause there's always someone swervin in my lane

A                         D                              A
You keep a swervin' in my lane and it's causing' lots of danger
                    E                            A
I'm a honkin' on my horn, I'm a shooting you the finger
                         D                                       A
I keep a switchin' on my bright lights, but your just too dim to know
A                           E                                      A
When your swervin' on life's highway, your running someone off the road

The day you drove away I thought I never
Could love another. How else could I feel?
But now when you run into me, I cain't believe I could not see
Your all tanked up, but no ones at the wheel

You keep a swervin' in my lane and it's causin' lots of danger
I'm a cussin' out your name, I'm a shooting you the finger
I keep a switchin' on my bright lights, but your just too dimm to know
When your swervin' on life's highway, your running someone off the road

When and if I ever finally pass you
Oh when I do and if I'm still alive
I want never see you, cause I'm ripping out my rearview
And I'm shifting it on in to overdrive

But your still swervin' in my lane and it's causin' lots of danger
I'm a stompin' on the foot feed, I'm a shooting you the finger
I keep a switchin' on my bright lights, but your just too dimm to know
When your swervin' on life's highway, your running someone off the road

G G A

Guitar Solo:

r: release  b:bend   s:slide   h:hammer on   p:pull off

--------------------------|------------5-7-5-|7b(9)r7-5----12|-12b(14)r-
--------------------------|-----5--5s7-------|---------------|----------
-------------2---2-4-2-4- |4s-6--------------|---------------|----------
--------2-4----4----------|------------------|---------------|----------
--2s4-------------------- |------------------|---------------|----------
--------------------------|------------------|---------------|----------

-12-----10--9h10p9---------|--------------- 12-------------------
--------------------10-----|------10-12b(14)---(14)r12-10--------
-------------------------11|-9h11--------------------------------
---------------------------|-------------------------------------
---------------------------|-------------------------------------
---------------------------|-------------------------------------

|--0-------------------------|---------------------------|-------------|----
|----------------------------|---------------------------|-------------|----
|--4b(6)--r4b(6)--(6)r-2-----|---------------------------|-------------|-2--
|------------------------4-2-|4b(5)r--4b(5)r-4-2---------|--------2-4-2|----
|----------------------------|--------------------2b(3)r-|0--2s4-------|----
|----------------------------|---------------------------|-------------|----
            
Hard to play? Try these video lessons and learn fast. | Correct




comments powered by Disqus
↑ Back to top | Tablatures and chords are parodies/interpretations of the original songs. You may use it for private study, scholarship, research or language learning purposes only