>
 >
New Life In Old Mexico

New Life In Old Mexico Guitar Tabs

Keen Robert Earl - New Life In Old Mexico chords, tabs, tablatures, lyrics

Guitar lessons | Add/correct | Request | Top 50 tabs Artists:  A B C D E F G H I J K L M N O P Q R S T U V W X Y Z 0-9

New Life In Old Mexico Guitar Tabs – Keen Robert Earl

CD, Sheet music, Poster

Do you like New Life In Old Mexico? Share with your friends now
Tabs


Intro:

   A  -  -  -  | E  -  -  -  | D  -  -  -  | D  -  -  -
e--------------------------------------------------------
b--------------------------------------------------------
g--------------------------------------------------------
D--11----9--7---9------6-7-9--7--------------------------
A--------------------------------5-5---------------------
E--------------------------------------------------------

   D  -  -  -  | E  -  -  -  | A  -  -  -  | A  -  -  -
e--------------------------------------------------------
b--------------------------------------------------------
g--------------------------------------------------------
D--------------------------------------------------------
A--5-------4-5--7---------4-5-------4/5\4----------------
E----------------------7------5--------------------------


   A  -  -  -  | A  -  -  -  | E  -  -  -  | D  -  -  -
e--------------------------------------------------------
b--------------------------------------------------------
g--------------------------------------------------------
D----7-9-11-11-11-12-11---9-7-9-------6-7-9--7------4----
A--7--------------------------------7------------5-------
E--------------------------------------------------------

   D  -  -  -  | E  -  -  -  | A  -  -  -  | A  -  -  -
e--------------------------------------------------------
b--------------------------------------------------------
g--6/7--6--4---------------------------------------------
D------------7-4/6-4-------------------------------------
A---------------------7---4--------0-0--0------0-0--0----
E---------------------------7-3/5---5--5---3/5--5--5-----



Verse 1:
      
   
A   -   -   -  |   A   -   -   -  | F#m -   -   -  |   F#m -   -   -  |
I crossed the mississippi, turned | South at San Antone

E   -   -   -  |   E   -   -   -  | D   -  -  -    |   A   -   -   -  | 
A bowie knife, a wooly coat, a    | grip bag  on  my  arm.  

A   -   -   -  |   A   -   -   -  | F#m -   -   -  |   F#m -   -   -  |
It's all somebody needs           | To make it through the land

E   -   -   -  |   E   -   -   -  | D   -  -  -    |   A   -   -   -  | 
Walk by night, travel light       |  Cross the Rio   Grande

Chorus 1:

   F#m -  -  -    |   D   -   -   -  |
   Someone strums  a mandoline

   A   -  -  -    |   E   -   -   -  |
   Soft gulf breezes blow

   A   -  -  -    |   D   -   -   -  |
   My new life is waiting

   E   -  -  -    |   A   -   -   -  |
   In old Mexico


Verse 2: (Lyrics)
     
   
I was once a married man livin' peacefully
Hard to say exactly when the devil blinded me
There was some confussion with my sweet wife of this world
Darker times and drunken crimes a dead young working girl

Chorus 2: (Lyrics)

I left a jailer there in Caroline
Watching me from down below
My new life is waiting
In old Mexico

Bridge:

F#m -  -  -   | D  -  -  -  | F#m -  -  -  |  D  -  -  - |
Livin in the shadows          Runnin from my pain

G?  -  -  -   | A  -  -  -  | D  -   -  -  |  E  -  -  - |
Goin where the wind blows and no one knows my name


Verse 3:  (Lyrics)

In a vaquero bar in the town of Eagle Pass
Moments from my freedom, warm wiskey in my glass
Some boracho took for the man who stole his wife
He went for his forty four as I reached for my knife

Chorus 3: (Lyrics)

He never fired a second shot
He was just too slow
My new life is waiting
In old Mexico

Main Solo:

    
e-------------------------------------------------------------
b-------------------------------------------------------------
g-------------------------------------------------------------
D-------------------------------------------------------------
A-------------------------------------------------------------
E-------------------------------------------------------------

e-------------------------------------------------------------
b-------------------------------------------------------------
g-------------------------------------------------------------
D-------------------------------------------------------------
A-------------------------------------------------------------
E-------------------------------------------------------------

e-------------------------------------------------------------
b-------------------------------------------------------------
g-------------------------------------------------------------
D-------------------------------------------------------------
A-------------------------------------------------------------
E-------------------------------------------------------------


Verse 4: (Lyrics)

I hid in the mountains south of Mazulblan
Where cool spring mountain waters meet the warm pacific sun
I pray all the miles I've traveled and all the sins I've bared
Burn away like morning fog and vanish in the air

Chorus 4: (Lyrics)

Miles beyond the border now
But many miles to go
My new life is waiting 
In old Mexico
My new life is waiting
In old Mexico





Comments


Popular Keen Robert Earl tabs & chords
Loves A Word I Never Throw Around Chords
Amarillo Highway Tabs
Armadillo Jackal Tabs
Copenhagen Tabs
Dont Turn Out The Light Tabs
Goin Nowhere Blues Tabs
Im Coming Home Tabs
Jesse With The Long Hair Tabs
Swervin In My Lane Tabs
The Road Goes On Forever Tabs


Song lyrics



↑ Back to top | Tablatures and chords are parodies/interpretations of the original songs. You may use it for private study, scholarship, research or language learning purposes only
© 2014 AZChords.com Contact us | Privacy policy | DMCA | Add/correct tabs | Request tabs | Top 50 tabs