» » »

Keb Mo, Victims Of Comfort Tabs (ver.1)

Artists:  A B C D E F G H I J K L M N O P Q R S T U V W X Y Z # 

Victims Of Comfort Tabs (ver.1)

Keb Mo Tabs
 Rating:
4/5 (4 votes)
Victims Of Comfort lessons Tabs too difficult? Try these video lessons and learn fast
                Keb' Mo' - VICTIMS OF COMFORT

Tuning is open D

**The he lyrics here are probably not all that accurate. Email me at 
if you have questions, comments, corrections,
for this or are looking for other difficult tabs with which I might be able to help. ENJOY!


INTRO
 D|--0---0---0---0---0---0---0-------0-----|
 A|--0--12sl14sl12---0---0---0-------0-----|
Gb|--0---0---0---0--10---8---5-------0-----|
 D|--0--12sl14sl12---0---0---0-------0-----|
 A|--0---0---0---0---0---0---0-------0-----|
 D|--0---0---0---0---9---9---5-4-2-0-0-----|

VERSE PART I
 D|--0---0---0--(7-)(5-)-------0---0---0---|
 A|--0---0---0--(7-)(5-)-------0---0---0---|
Gb|--7---5---0--(7-)(5-)-------7---5---0---|
 D|--0---0---0--(7-)(5-)-------0---0---0---|
 A|--0---0---0--(7-)(5-)-------0---0---0---|
 D|--7---5---0--(7-)(5-)-------7---5---0---|

No rocket's gonna fly that high
No escaping the enemy of you and I

VERSE PART II
 D|--0--0---4-4---2-0------0--0--x--0--x---|
 A|--0--0---4-4---0-0------0--0--5--0--5---|
Gb|--7--5---5-4---0-0------5--7--5--7--5---|
 D|--0--0---4-4---0-0------5--7--5--7--5---|
 A|--0--0---7-7---2-2------0--0--x--0--x---|
 D|--7--5---4-4---x-x------5--7--7--7--7---|

We've poisoned up the water
We're chokin' on the air
Blah Blah Blah
Or is it already too late
Is it already too late


CHORUS (SAME PROG. AS INTRO)
 D|--0----0----0----0---0--0---0-------0---|
 A|--0---12sl-14sl-12---0--0---0-------0---|
Gb|--0----0----0----0--10--8---5-------0---|
 D|--0---12sl-14sl-12---0--0---0-------0---|
 A|--0----0----0----0---0--0---0-------0---|
 D|--0----0----0----0---9--9---5-4-2-0-0---|

For the victims of comfort
Got no one else to blame
We're just the victims of comfort
cryin' shame

BRIDGE
 D|---3----5----sl12------3----5----sl12---|
 A|---3----5----sl12------3----5----sl12---|
Gb|---3----5----sl12------3----5----sl12---|
 D|---3----5----sl12------3----5----sl12---|
 A|---3----5-----x-x------3----5-----x-x---|
 D|---3----5-----x-x------3----5-----x-x---|

Oh what do we got to lose. . .
And what do we stand to gain . . .

CHORUS ENTRY FROM BRIDGE (ala VERSE PART II)
 D|---0---0------0---x---0---x---|
 A|---0---0------0---5---0---5---|
Gb|---8---5------7---5---7---5---|
 D|---0---5------7---5---7---5---|
 A|---0---0------0---x---0---x---|
 D|---9---5------7---7---7---7---|

So let's try together
Before we have to cry together
Too soon to die together. . .(back 2 chorus)
            
Submit corrections

comments powered by Disqus
↑ Back to top | Keb Mo Tabs for Victims Of Comfort. Lyrics for acoustic guitar and electric guitar. Tablatures and chords are parodies/interpretations of the original songs. You may use it for private study, scholarship, research or language learning purposes only