» » »

Keb Mo, Perpetual Blues Machine Tabs (ver.1)

Artists:  A B C D E F G H I J K L M N O P Q R S T U V W X Y Z # 

Perpetual Blues Machine Tabs (ver.1)

Keb Mo Tabs
 Rating:
4/5 (4 votes)
Perpetual Blues Machine lessons Tabs too difficult? Try these video lessons and learn fast
                (Intro)
-------------------------------------------------------------------------------
                             Perpetual Blues Machine - Keb Mo
-------------------------------------------------------------------------------

Tuning:

e|------------------0-------------------------------------------------------------|
B|----------------5----------------------------3-----1----------------------------|
G|---------4h5h6---------6-5-4-2----------2-------2-----2-----2-----2--2----2--2--|
D|--------------------------------4---------------------0-----2-----4--2----4--2--|
A|----------------------------------------------------------0-----0-------0-------|
E|------------------------------------0---2----2-----2----------------------------|
repeat up to here a second time---------------------------------------------------|

e|---------------------------------------------------------------------------------|
B|-------2--3--4--5----------------------------------------------------------------|
G|-------2--4--5--6----------------------------------------------------------------|
D|---------------------------------------------------------------------------------|
A|---------------------------------------------------------------------------------|
E|---------------------------------------------------------------------------------|
then do this, then reapeat the first part.



************************************

| /   slide up
| \   slide down
| h   hammer-on
| p   pull-off
| ~   vibrato
| +   harmonic
| x   Mute note
| b   Bend
| pb  Pre-bend
| br  Bend release
| pbr Pre-bend release
| brb Bend release bend

************************************
            
Submit corrections

comments powered by Disqus
↑ Back to top | Keb Mo Tabs for Perpetual Blues Machine. Lyrics for acoustic guitar and electric guitar. Tablatures and chords are parodies/interpretations of the original songs. You may use it for private study, scholarship, research or language learning purposes only