>
 >
Perpetual Blues Machine

Perpetual Blues Machine Guitar Tabs

Keb Mo - Perpetual Blues Machine chords, tabs, tablatures, lyrics

Guitar lessons | Add/correct | Request | Top 50 tabs Artists:  A B C D E F G H I J K L M N O P Q R S T U V W X Y Z 0-9

Perpetual Blues Machine Guitar Tabs – Keb Mo

CD, Sheet music, Poster

Do you like Perpetual Blues Machine? Share with your friends now
Tabs
#This Tabcrawler file is the author's own work and represents their interpretation  #
#research. Remember to view this file in Courier, or some other monospaced    #
#font.                      #


PERPETUAL BLUES MACHINE

So here it is, minus a couple flourishes and whatnot.  Feel free to email 
mo tabs.  Cheers!


INTRO:

  1 & a 2 & a 3 & a 4 & a
E|----------0-------------|
B|--------5---------------|
G|-----/6----\4---2-------|
D|------------------4---2-|
A|------------------------|
E|------------------------|


PART A:
Bass notes can be played by a bass to make it easier 

  1 & a 2 & a 3 & a 4 & a 1 & a 2 & a 3 & a 4 & a
E|----0-------------------------------------------|
B|1-----3-----1-----------------------------------|
G|----------2-----2-----2-----2-----2-----2-------|
D|----------------0-----2-----2-4---2-----2-4-----|
A|------------------------0-----0-----0-----0-----|
E|2-----2-----2-----2-----------------------------|

  1 & a 2 & a 3 & a 4 & a 1 & a 2 & a 3 & a 4 & a
E|----0-------------------------------------------|
B|1-----3-----1---------------2-3-----4-----5-----|
G|----------2-----2-----2-----2-4-----5-----6-----|
D|----------------0-----2-------------------------|
A|------------------------0-----0-----0-----0-----|
E|2-----2-----2-----2-----------------------------|

*alternate to 2nd measure above:
                    4 & a 1 & a 2 & a 3 & a 4 & a
                    ----------------------0-----0-|
                    ----------2-----5---------0---|
                    ----2-----2/6-----------------|
                    ----2-------------------------|
                    ------0-----0-----0-----0-----|
                    2-----------------------------|

  1 & a 2 & a 3 & a 4 & a 1 & a 2 & a 3 & a 4 & a
E|----0-----------------------------------0-------|
B|1-----3-----1-----------2---1-0-----------------|
G|----------2-----2-------2---1-0---3-------------|
D|----------------0-----------------2-----------0-|
A|------------------------0-----0-----------------|
E|2-----2-----2-----2-----------------2-----2-----|

  1 & a 2 & a 3 & a 4 & a 1 & a 2 & a 3 & a 4 & a
E|----2-------0-----------------------------------|
B|----------------3-------------------------------|
G|----------------------2-----2-----2-----2-----2-|
D|1-------0-1-----------2-----2-4---2-----2-4---2-|
A|2-----2----------2------0-----0-----0-----0-----|
E|------------0-----------------------------------|


PART B:

  1 & a 2 & a 3 & a 4 & a 1 & a 2 & a 3 & a 4 & a
E|------------------------------------------------|
B|------------------------------------------------|
G|----2-----2-----2-----2-------------------------|
D|----2-4---2-----2-----2-------------------------|
A|0-----0-----0-----3-4---------------------------|
E|------------------------------------------------|


  1 & a 2 & a 3 & a 4 & a 1 & a 2 & a 3 & a 4 & a
E|------------------------------------------------|
B|------------------------------------------------|
G|----2-----2-----2-----2-----2-----2-----2-------|
D|----2-4---2-----2-4---2-----2-4---2-----2-4-----|
A|0-----0-----0-----0-----0-----0-----0-----0-----|
E|------------------------------------------------|

  1 & a 2 & a 3 & a 4 & a 1 & a 2 & a 3 & a 4 & a
E|----0-------------------------------------------|
B|1-----3-----1-----------------------------------|
G|----------2-----2-----2-----2-----2-----2-----2-|
D|----------------0-----2-----2-4---2-----2-4---2-|
A|------------------------0-----0-----0-----0-----|
E|2-----2-----2-----2-----------------------------|

PART C:

  1 & a 2 & a 3 & a 4 & a 1 & a 2 & a 3 & a 4 & a
E|----------------------------------------0-------|
B|----------------------------------------0-------|
G|----2-------2-2---------2-2-------2-------------|
D|----2-------2-2---------2-2-------2-----------0-|
A|------------------------------------------------|
E|2-----2-----2-----2-----2-----2-----2-----2-----|


  1 & a 2 & a 3 & a 4 & a 1 & a 2 & a 3 & a 4 & a
E|----------------------------2-------------------|
B|----------0-----------------------0-------------|
G|----2-----------2-----------------------2-------|
D|1---------------------1-------------------------|
A|2-----2-----2-----2-----2-----2-----2-----2-----|
E|----------------------------------------------0-|

  1 & a 2 & a 3 & a 4 & a 1 & a 2 & a 3 & a 4 & a
E|----------------------------------------0-------|
B|----------------------------------------0-------|
G|----2-------2-2---------2-2-------2-------------|
D|----2-------2-2---------2-2-------2-----------0-|
A|------------------------------------------------|
E|2-----2-----2-----2-----2-----2-----2-----2-----|

  1 & a 2 & a 3 & a 4 & a 1 & a 2 & a 3 & a 4 & a
E|------------------------------------------------|
B|----------0-------------------------------------|
G|----2-----------2-------1-----2-----3-----4-----|
D|1-----------------------------------------------|
A|2-----2-----2-----2-----2-----3-----4-----5-----|
E|------------------------------------------------|


PART D (SOLO):

  1 & a 2 & a 3 & a 4 & a 1
E|------------------------|
B|------------------------|
G|----2-----2-----2-------|
D|----2-4---2-----2-4--/7-|
A|0-----0-----0-----0-----|
E|------------------------|

  1 & a 2 & a 3 & a 4 & a 1 & a 2 & a 3 & a 4 & a
E|----9-----------9-------9---9-----9-------------|
B|------------8-----------8---8-----8-------------|
G|------------------------------------------------|
D|------------------------------------------------|
A|0-----0-----0-----0-----0-----0-----0-----0-----|
E|------------------------------------------------|

  1 & a 2 & a 3 & a 4 & a 1 & a 2 & a 3 & a 4 & a
E|----0-------------------------------------------|
B|1-----3-----1-----------------------------------|
G|----------2-----2-----2-----2-----2-----2-------|
D|----------------0-----2-----2-4---2-----2-4--/7-|
A|------------------------0-----0-----0-----0-----|
E|2-----2-----2-----2-----------------------------|

  1 & a 2 & a 3 & a 4 & a 1 & a 2 & a 3 & a 4 & a
E|----9-------9---9-----------12----------------0-|
B|------------8---8-----12b13-------13r12-10------|
G|------------------------------------------11----|
D|------------------------------------------------|
A|0-----0-----0-----0-----0-----0-----0-----0-----|
E|------------------------------------------------|

1 & a 2 & a 3 & a 4 & a 1 & a 2 & a 3 & a 4 & a
E|----0-------------------------------------------|
B|1-----3-----1-----------------------------------|
G|----------2-----2-----2-----2-----2-----2-------|
D|----------------0-----2-----2-4---2-----2-4--/7-|
A|------------------------0-----0-----0-----0-----|
E|2-----2-----2-----2-----------------------------|


OUTRO:
play PART A, with the 7th/8th measure changed to look
like so...
  1 & a 2 & a 3 & a 4 & a 1 & a 2 & a 3 & a 4 & a
E|----2-------0-----------------------------------|
B|----------------3-------------------------------|
G|----------------------2-----2-----2-----2-------|
D|1-------0-1-----------2-----2-4---2-----2-4---0-| <--only this last
A|2-----2----------2------0-----0-----0-----0-----|    note changes
E|------------0-----------------------------------|

now repeat measures 7 & 8 above...

now play:
  1 & a 2 & a 3 & a 4 & a 1 & a 2 & a 3 & a 4 & a
E|----2-------0---------------5-------5-----5-----|
B|----------------3-------------------------------|
G|------------------------------------------------|
D|1-------0-1-----------------5-------4-----3-----|
A|2-----2-----------2-----0-----------------------|
E|------------0-----------------------------------|

  1 & a 2 & a 3 & a 4 & a
E|5-----------5-----------|
B|------------5-----------|
G|------1-----2-----------|
D|2-----0-----2-----------|
A|------------0-----------|
E|----0-------------------|



OK, so that's all the main parts to the song.  It's structured something 
like so:

INTRO
PART A
PART B x2
PART C
PART A (use alt. second measure)
PART B x2
PART C
PART A
PART D (SOLO)
PART C
OUTRO


 
 
 


| /  slide up
| \  slide down
| h  hammer-on
| p  pull-off
| ~  vibrato
| +  harmonic
| x  Mute note
===============================================================================





Comments


Popular Keb Mo tabs & chords
More Than One Way Home Chords
That's Not Love Chords
Anybody Seen My Girl Tabs
Just Like You Tabs
Suitcase Intro Tabs
Tell Everybody I Know Tabs
You Can Love Yourself Tabs
Angelina Ukulele
Mommy Can I Come Home Ukulele
Thats Not Love Ukulele


Song lyrics



↑ Back to top | Tablatures and chords are parodies/interpretations of the original songs. You may use it for private study, scholarship, research or language learning purposes only
© 2014 AZChords.com Contact us | Privacy policy | DMCA | Add/correct tabs | Request tabs | Top 50 tabs