>
 >
Anybody Seen My Girl 1

Anybody Seen My Girl 1 Guitar Tabs

Keb Mo - Anybody Seen My Girl 1 chords, tabs, tablatures, lyrics

Guitar lessons | Add/correct | Request | Top 50 tabs Artists:  A B C D E F G H I J K L M N O P Q R S T U V W X Y Z 0-9

Anybody Seen My Girl 1 Guitar Tabs – Keb Mo

CD, Sheet music, Poster

Do you like Anybody Seen My Girl 1? Share with your friends now
ChordsTabsTabs v2
Intro                                                             
E||--------------------2--|--5------------5--------|--5---------------------|
B||-----------------5-----|---------------------2--|-------2----1--/2-------|
G||-----------------------|------------------------|------------------------|
D||-----------------------|-------2----------2-----|-------2-----------2----|
A||-----------------------|--0---------0-----------|--0---------0-----------|
E||-----------------------|------------------------|------------------------|
                                               

                                                Verse          
---------------5--------|--5-------------------|---------------5-------|
---------------------2--|----------------------|-----------------------|
--2---------------------|----------------------|-----------------------|
-------2----------2-----|----------------------|-------2----------2----|
--0---------0-----------|--0-------------------|--0---------0----------|
------------------------|----------------------|-----------------------|


                                                          
-----5--------------------|-----------------------|------------------------|
-------------1--/2--------|--1--------------------|--0----------3----------|
-----------------------2--|-----------------------|----------0----------2--|
--------2-----------2-----|--------0---------0----|-------1----------0-----|
--0----------0------------|-----------------------|------------------------|
--------------------------|--2----------2---------|--1----------0----------|


                                                           
------------------------|-----5--------------------|----------------------|
--1--/2-----------------|-------------1--/2--------|----------------------|
------------------------|-----------------------2--|----------------------|
---------2---------2----|--------2-----------2-----|-------2---------2----|
--0-----------0---------|--0----------0------------|--0---------0---------|
------------------------|--------------------------|----------------------|


                                                          
-----5--------3---------|--0-------------------|-----2--0------------------|
-----------2------------|----------------------|--------------0h--1--------|
------------------------|----------------------|--2--------2------------2--|
--------2----------2----|-------0---------0----|--------0------------0-----|
--0-----------0---------|----------------------|---------------------------|
------------------------|--2---------2---------|--2-----------2------------|


                                                          
----------------------|------------------------|------------------------|
--0-------------------|--3-------------3-------|--1--/2-----------------|
--2-------------------|--2-------2-------------|------------------------|
-------1---------1----|-------0-----------0----|---------2---------2----|
----------------------|--0---------------------|--0-----------0---------|
--1---------1---------|-------------0----------|------------------------|


                                                          
-----5--------------------|----------------------|-----5----------5--------|
-------------1--/2--------|----------------------|-------------------------|
-----------------------2--|----------------------|----------------------2--|
--------2-----------2-----|-------2---------2----|--------2----------2-----|
--0----------0------------|--0---------0---------|--0----------0-----------|
--------------------------|----------------------|-------------------------|


                                                         
--0-------------------|------------------------|----------------0-------|
----------------------|-------3-----3----------|--1---------------------|
----------------------|----------1-----1-------|----------2-------------|
-------2---------2----|-------2-----------2----|-------0-----------0----|
----------------------|------------------------|------------------------|
--0---------0---------|--0----------0----------|--2----------2----------|


                                                          
----------------0-------|---------------5-------|--5---------------------|
--0----------3----------|-----------------------|------------1--/2-------|
----------0--2----------|-----------------------|------------------------|
-------1-----------2----|-------2----------2----|-------2-----------2----|
------------------------|--0---------0----------|--0---------0-----------|
--1----------0----------|-----------------------|------------------------|


                                                         
-----5-----4-----3-------|--3------------3-------|----------------------|
-------------------------|-----------------------|----------------------|
-------------------------|-----------------------|----------------------|
--------2-----------2----|-------2----------2----|-------0---------0----|
--0-----------0----------|--0---------0----------|----------------------|
-------------------------|-----------------------|--2---------2---------|


                                                         
-----2--------2----------|----------------------|-----------------------|
-----------1-------------|----------------------|--1------------1-------|
----------------------2--|----------------------|-----------------------|
--------0----------0-----|-------0---------0----|-------0----------0----|
-------------------------|----------------------|-----------------------|
--2-----------2----------|--2---------2---------|--2---------2----------|


                                                         
----------------0-------|------------------------|---------------0--------|
----------0-------------|----------0-----0-------|------------0-----------|
------------------------|------------------------|--6------------------6--|
-------3-----------0----|-------3-----------3----|-------5----------5-----|
------------------------|------------------------|------------------------|
--3----------3----------|--3----------3----------|--5---------5-----------|


                                                         
-------------0---------|---------------0-------|--2---------------------|
-----0-----------------|--1--------------------|----------------1-------|
--6--------------------|-----------------------|----------2-------------|
--------5---------5----|-------0----------0----|-------0-----------0----|
-----------------------|-----------------------|------------------------|
--5----------5---------|--2---------2----------|--2----------2----------|


 Bridge                                                        
----------------------|--2----------------------|---------------2-------|
----------------------|----------------1--------|--0--------------------|
----------------------|----------2-----------2--|-----------------------|
-------0---------0----|-------0-----------0-----|-------1----------1----|
----------------------|-------------------------|--2---------2----------|
--2---------2---------|--2----------2-----------|-----------------------|


                                                         
--2---------------------|-------0---------0----|------------0---------|
----------------0-------|----------------------|----------------------|
----------2-------------|--1---------2---------|--3----4---------1----|
-------1-----------1----|----------------------|----------------------|
--2----------2----------|--2---------3---------|--4----5---------2----|
------------------------|----------------------|----------------------|


                                        
--4----5--6--7----4----|-----------------------||
--5----7--8--9----5----|-----------------------||
-----------------------|--0h----1--------------||
-----------------------|--2--------------------||
-----------------------|--2--------------------||
-----------------------|-----------------------||





Comments


Popular Keb Mo tabs & chords
A Better Man Chords
Closer Chords
Mommy Can I Come Home Chords
More Than One Way Home Chords
Ill Be Your Water Tabs
Victims Of Comfort Tabs
A Better Man Ukulele
Angelina Ukulele
More Than One Way Home Ukulele
Thats Not Love Ukulele


Song lyrics



↑ Back to top | Tablatures and chords are parodies/interpretations of the original songs. You may use it for private study, scholarship, research or language learning purposes only
© 2014 AZChords.com Contact us | Privacy policy | DMCA | Add/correct tabs | Request tabs | Top 50 tabs