>
 >
Am I Wrong

Am I Wrong Guitar Tabs

Keb Mo - Am I Wrong chords, tabs, tablatures, lyrics

Guitar lessons | Add/correct | Request | Top 50 tabs Artists:  A B C D E F G H I J K L M N O P Q R S T U V W X Y Z 0-9

Am I Wrong Guitar Tabs – Keb Mo

CD, Sheet music, Poster

Do you like Am I Wrong? Share with your friends now
Tabs
Keb’ Mo’

played in Open A (E A E A C# E from low to high) 

E-|---------------------------------------------------------------------------| 
C#|---------------------------------------------------------------------------| 
A-|----------/3-0------0---/3-0-----------------------0--/3---0---/3-0------0-| 
E-|---------------0-/3----------0-/3-0------------/3-------------------0-/3---| 
A-|------------------------------------/3--0--0-------------------------------| 
E-|---------------------------------------------------------------------------| 
Am I .. 

|---------------------------------------------------------------------------| 
|---------------------------------------------------------------------------| 
|-/3--0-/3--0-/3-0-----------------------/5-/5~-5s3p0---------------/5------| 
|------------------0-/3--0---------------/5-----------/5~-------5p0---------| 
|------------------------------/3---0----/5----------------/5---------------| 
|---------------------------------------------------------------------------| 
tell .. 

|---------------------------------------------------------------------------| 
|---------------------------------------------------------------------------| 
|---0-----/3------------/3-0------0-/3-/3--0-/3-0----------------0---/7--0--| 
|------0---------------------0-/3-----------------0-/3--0-------------------| 
|-----------------------------------------------------------/3--------------| 
|---------------------------------------------------------------------------| 
fallin' .. 

|---------------------------------------------------------------------------| 
|---------------------------------------------------------------------------| 
|-/5---0--/3-0------0--/7--0---/5---/3----/7--0---/5-0--/3--0---/3-0------0-| 
|--------------0-/3--------------------------------------------------0-/3---| 
|---------------------------------------------------------------------------| 
|---------------------------------------------------------------------------| 
man .. 

|-/5~-----------------------------------------------------------------------| 
|---------------------------------------------------------------------------| 
|-----/3--0-------------------------------/3-0------0-/3--/3--0-/3-0--------| 
|------------0--/3-0---------------------------0-/3------------------0-/3---| 
|--------------------0--/3--0-----------------------------------------------| 
|---------------------------------------------------------------------------| 
uh .. 

|-----/5~-------------------------------------------------------------------| 
|---------------------------------------------------------------------------| 
|---------------/3------/3-0------0--/3-0----/3--0-------0----/3-0---/5--/5-| 
|--0-------------------------0-/3---------0--------0--/3---0-------0--------| 
|---------------------------------------------------------------------------| 
|---------------------------------------------------------------------------| 
holdin' ... 

|---------------------------------------------------------------------------| 
|---------------------------------------------------------------------------| 
|-0-5s3-----------------0----/5-------/3--(0)--/3-0------0----/3-0----------| 
|-------/5--/5~-0-0-/5----0-------------------------0-/3-----------0-/3-0---| 
|-------------------------------------------------------------------------0-| 
|---------------------------------------------------------------------------| 
holdin' ... 

|---------------------------------------------------------------------------| 
|---------------------------------------------------------------------------| 
|------------0---/7~-----0-/5---0---/3----0-----------0--/7-0-/5-0-0-/5-----| 
|-------/3------------------------------------0---/3------------------------| 
|-/3-0----------------------------------------------------------------------| 
|---------------------------------------------------------------------------| 
if ... 

|---------------------------------------------------------------------------| 
|---------------------------------------------------------------------------| 
|-/7-0--/5--0--/3-----------/5-/3-0------0--/3p0--/3-0------0---------------| 
|------------------/5---------------0-/3---------------0-/3-----------------| 
|---------------------------------------------------------------------------| 
|---------------------------------------------------------------------------| 
ready ... 

|---------------------------------------------------------------------------| 
|---------------------------------------------------------------------------| 
|---------/3-0------0---/3-0----------------------0--------/3---/3-0------0-| 
|--------------0-/3----------0-/3-0---------/3---------0-------------0-/3---| 
|------------------------------------0-/3-0---------------------------------| 
|---------------------------------------------------------------------------| 
be ... 

|-----------------------------------------------------------------------/5~-| 
|---------------------------------------------------------------------------| 
|-/3-0-----------0---/3~---------------0-----/5-/5-0-5s3p0------------------| 
|------0-/3-0-/3---0---------------------------------------/5~--/5-/5p0-----| 
|---------------------------------------------------------------------------| 
|---------------------------------------------------------------/5----------| 
you ... 

|------------------------------------------/12~-----------------------------| 
|---------------------------------------------------------------------------| 
|--/5p0--/3-----0--------------/3-0------0------/3-0-0----0-/3--0-----------| 
|--------------------0---/3---------0-/3---------------/3---------/3--------| 
|---------------------------------------------------------------------------| 
|---------------------------------------------------------------------------| 
I know ... 

|---------------------------------------------------------------------------| 
|---------------------------------------------------------------------------| 
|--0-0-/7--0--/5-0-/3-0------0--/7-0-/5-0-/3------/7-0-/5-0--/3----0--------| 
|-----------------------0-/3------------------------------------------------| 
|---------------------------------------------------------------------------| 
|---------------------------------------------------------------------------| 
you ... 

|---------------------------------------------------------------------------| 
|---------------------------------------------------------------------------| 
|-/5-/3-0------0-/3-0------/3--0-----0-------------/3-0------0---/3-0-------| 
|---------0-/3--------0----------/3---------------------0-/3----------0-/3--| 
|---------------------------------------------------------------------------| 
|---------------------------------------------------------------------------| 
oh .. 

|---------------------------------------------------------------------------| 
|---------------------------------------------------------------------------| 
|---------------------/3--0-------/3-0------0----/3-0------0--/3-0-----0-0--| 
|-0-0-/3--0-0-/3--0-0------------------0-/3-----------0-/3---------/3-------| 
|---------------------------------------------------------------------------| 
|---------------------------------------------------------------------------| 
tryin' ... 

|---------------------------------------------------------------------------| 
|---------------------------------------------------------------------------| 
|--/5-0-/5-0-/3p0---------0--------0--------------/3---0--/3-0------0-------| 
|-----------------/5~--/5---0-/5--------0---/3-----------------0-/3---------| 
|---------------------------------------------------------------------------| 
|---------------------------------------------------------------------------| 
wrong .. 

|---------------------------------------------------------------------------| 
|---------------------------------------------------------------------------| 
|-/3-0------0--/3--0------0-----------/7--/5---0--/3-0------0--/7-0-/5-0-/3-| 
|------0-/3----------/3-----0--------------------------0-/3-----------------| 
|---------------------------------------------------------------------------| 
|---------------------------------------------------------------------------| 
just .. 

|-------------------------------------------------------/5~-----------------| 
|---------------------------------------------------------------------------| 
|----/7--0--/5--0--/3--0------/3-0------0---/3-0------0------/3-0------0----| 
|----------------------------------0-/3----------0-/3-------------0-/3------| 
|---------------------------------------------------------------------------| 
|---------------------------------------------------------------------------| 
and ... 

|---------------------------------------------------------------------------| 
|---------------------------------------------------------------------------| 
|-/3-0------0-------------------0-0-/3-0---/3---0---/3--------/3-0------0---| 
|------0-/3----/3--0---------/3------------------------------------0-/3-----| 
|---------------------/3--0-------------------------------------------------| 
|---------------------------------------------------------------------------| 
fallin' ... 

|---------------------------------------------------------------------------| 
|---------------------------------------------------------------------------| 
|-/3-0--/3-0------0-----------/3--0-------------/5~--/3-0-----------/3p0-/5-| 
|------------0-/3--------------------/3--0----------------5s3----/5---------| 
|-------------------------------------------------------------/5-/5---------| 
|---------------------------------------------------------------------------| 
uh you .. 

|---------------------------------------------------------------------------| 
|---------------------------------------------------------------------------| 
|--0-/3p0--/3-0-----------/3-0----------/3-0-----/3-0------0------0-0-------| 
|---------------0--------------0-------------0--------0-/3----/3------------| 
|---------------------------------------------------------------------------| 
|-----------------/3---0---------/3--0--------------------------------------| 
fallin' ... 

|-------------------------------------------------------------------/5p0----| 
|---------------------------------------------------------------------------| 
|-/7-0--/5---0--/3-0------0--/7-0---/5-0--/3----/7--0--/5-0-/3--0--------/5-| 
|--------------------0-/3---------------------------------------------------| 
|---------------------------------------------------------------------------| 
|---------------------------------------------------------------------------| 
other ... 

|---------------------------------------------------------------------------| 
|---------------------------------------------------------------------------| 
|-/3-0------0--/3--0-/3-0------0-------0-0--/7-0--/5---0--/3-0------0-------| 
|------0-/3---------------0-/3----/3---------------------------0-/3---------| 
|---------------------------------------------------------------------------| 
|---------------------------------------------------------------------------| 
while ... 

|------------------------------------------/5----------------------------/5~| 
|---------------------------------------------------------------------------| 
|-/7-0---/5-0--/3-----/7-0--/5-0-/3--0--------/5-/3-0------------------0----| 
|-----------------------------------------------------0-/3-0-------/3-------| 
|----------------------------------------------------------------0----------| 
|------------------------------------------------------------/3-------------| 
cheatin' ...





Comments


Popular Keb Mo tabs & chords
Life Is Beautiful Chords
Life Is Beautiful 2 Chords
More Than One Way Home Chords
Anybody Seen My Girl Tabs
Mama Wheres My Daddy Tabs
Perpetual Blues Machine Tabs
Perpetual Blues Machine Intro Tabs
Suitcase Intro Tabs
Victims Of Comfort Tabs
The Whole Enchilada Ukulele


Song lyrics



↑ Back to top | Tablatures and chords are parodies/interpretations of the original songs. You may use it for private study, scholarship, research or language learning purposes only
© 2014 AZChords.com Contact us | Privacy policy | DMCA | Add/correct tabs | Request tabs | Top 50 tabs