>
 >
Unstoppable

Unstoppable Guitar Tabs

Keaton Simons - Unstoppable chords, tabs, tablatures, lyrics

Guitar lessons | Add/correct | Request | Top 50 tabs Artists:  A B C D E F G H I J K L M N O P Q R S T U V W X Y Z 0-9

Unstoppable Guitar Tabs – Keaton Simons

CD, Sheet music, Poster

Do you like Unstoppable? Share with your friends now
Tabs
-----------------------------------------------------------------------------
-----------------------------------------------------------------------------


responded and wrote it out for me.  VERY COOL!  Tab is a PDF and also contains the 
piano notation.  Email me for the whole file.

Tuning: Standard

Intro
e|-----------------|-----------------|----------------|----------------|
B|------------0----|-----------------|-----------3----|----------------|
G|-------0---------|-------2-0----0--|------2---------|------2-0----0--|
D|----4---------4--|----4-------4----|----0--------0--|----0------2----|
A|-----------------|-----------------|----------------|----------------|
E|--3-------3------|--3--------------|--1------1------|--1-------------|

e|-----------------|-----------------|---------------|------------------|
B|-------3---------|--------2--------|------1--------|------------------|
G|------------0----|----0-------0----|----------0----|---0-----0--------|
D|----2---------2--|------2-------2--|----2-------2--|-----0-2----0-----|
A|-----------------|-----------------|---------------|--------------0-2-|
E|--0-------0------|--0-------0------|--0-----0------|--0---------------|   x3

Pre-Chorus
e|-----------------|-----------------|----------------|----------------|
B|------------0----|------------0----|-----------3----|-----------3----|
G|-------0---------|-------0---------|------2---------|------0---------|
D|----4---------4--|----4---------4--|----0--------0--|----2--------2--|
A|-----------------|-----------------|----------------|----------------|
E|--3-------3------|--3-------3------|--1------1------|--0------0------|

e|-----------------|-----------------|----------------|
B|------------3----|------------3----|-----------3----|
G|-------0---------|-------0---------|------2---------|
D|----2---------2--|----2---------2--|----0--------2--|
A|--3------3-------|-----------------|----------------|
E|-----------------|--1-------1------|--1------1------|

e|-----------------|-----------------|----------------|----------------|
B|------------0----|------------0----|-----------3----|-----------3----|
G|-------0---------|-------0---------|------2---------|------0---------|
D|----4---------4--|----4---------4--|----0--------0--|----2--------2--|
A|-----------------|-----------------|----------------|----------------|
E|--3-------3------|--3-------3------|--1------1------|--0------0------|

e|-----------------|-----------------|----------------|----------------|
B|------------3----|------------3----|-----------3----|-----------3----|
G|-------0---------|-------0---------|------2---------|------2---------|
D|----2---------2--|----2---------2--|----0--------2--|----0--------2--|
A|--3------3-------|-----------------|----------------|----------------|
E|-----------------|--1-------1------|--1------1------|--1------1------|

e|-----------------|-----------------|----------------|----------------|
B|------------3----|------------3----|-----------3----|-----------3----|
G|-------0---------|-------0---------|------2---------|------2---------|
D|----2---------2--|----2---------2--|----0--------2--|----0--------2--|
A|--3------3-------|-----------------|----------------|----------------|
E|-----------------|--1-------1------|--1------1------|--1------1------|

Chorus
e|-----------------|--3--------------|----------------|--0-------------|
B|------------0----|------------0----|-----------1----|-----------1----|
G|-------0---------|-------0---------|------4---------|------4---------|
D|----0---------0--|----0---------0--|----2--------2--|----2--------2--|
A|-----------------|-----------------|--0------0------|--0------0------|
E|--3-------3------|--3-------3------|----------------|----------------|

e|-----------------|--0--------------|----------------|----------------|
B|------------1----|------------1----|-----------1----|-----------1----|
G|-------0---------|-------0---------|------2---------|------0---------|
D|----2---------2--|----2---------2--|----3--------3--|----2--------2--|
A|--3-------3------|--3-------3------|---------3------|--3------3------|
E|-----------------|-----------------|--1-------------|----------------|

e|-----------------|--3--------------|----------------|--0-------------|
B|------------0----|------------0----|-----------1----|-----------1----|
G|-------0---------|-------0---------|------4---------|------4---------|
D|----0---------0--|----0---------0--|----2--------2--|----2--------2--|
A|-----------------|-----------------|--0------0------|--0------0------|
E|--3-------3------|--3-------3------|----------------|----------------|

e|-----------------|--0--------------|----------------|----------------|
B|------------1----|------------1----|-----------1----|-----------1----|
G|-------0---------|-------0---------|------2---------|------2---------|
D|----2---------2--|----2---------2--|----3--------3--|----3--------3--|
A|--3-------3------|--3-------3------|---------3------|--------3-------|
E|-----------------|-----------------|--1-------------|--1-------------|

e|-----------------|--3--------------|----------------|--0-------------|
B|------------0----|------------0----|-----------1----|-----------1----|
G|-------0---------|-------0---------|------4---------|------4---------|
D|----0---------0--|----0---------0--|----2--------2--|----2--------2--|
A|-----------------|-----------------|--0------0------|--0------0------|
E|--3-------3------|--3-------3------|----------------|----------------|

e|-----------------|------------------|
B|------------1----|----3-------3-----|
G|------2----------|-------0--------0-|
D|----3---------3--|-----0--------0---|
A|----------3------|------------------|
E|--1--------------|--1-------2-------|

Intro x1

Bridge
e|-----------------|-----------------|----------------|----------------|
B|--3----------3---|--5---------5----|--7--------7----|--0--------7----|
G|-------0---------|-------0---------|-------0--------|------0---------|
D|----2---------2--|-----4--------4--|-----5-------5--|----5--------5--|
A|--3-------3------|--5-------5------|--7------7------|--7------7------|
E|-----------------|-----------------|----------------|----------------| x3

e|-----------------|-----------------|----------------|-----------------|
B|--8----------8---|--8---------8----|--3--------3----|-------3-------3-|
G|-------0---------|-------0---------|-------0--------|---0-------0-----|
D|----7---------7--|-----7--------7--|-----2-------2--|-----0-------0---|
A|--8-------8------|--8-------8------|--3------3------|-----------------|
E|-----------------|-----------------|----------------|--1-------2------| 

Chorus x1

Outro
e|----------------|-----------------|----------0-----|
B|-----------1----|------------1----|--------0-------|
G|------0---------|-------0---------|------2---------|
D|----2-----------|-----2--------2--|----3-----------|
A|--0-----0----2--|--3-------3------|----------------|
E|----------------|-----------------|--1-------------|





Comments


Popular Keaton Simons tabs & chords
Lightning Chords
Other Side Chords
Currently Tabs
Lightning Tabs
Misfits Intro Tabs
Unstoppable Intro Tabs
Without Your Skin Tabs
Lightning Ukulele


Song lyrics



↑ Back to top | Tablatures and chords are parodies/interpretations of the original songs. You may use it for private study, scholarship, research or language learning purposes only
© 2014 AZChords.com Contact us | Privacy policy | DMCA | Add/correct tabs | Request tabs | Top 50 tabs