» » »

Lightning Tabs (ver.1)

Artists:  A B C D E F G H I J K L M N O P Q R S T U V W X Y Z # 

Lightning Tabs (ver.1)

Keaton Simons
Rating:
0/5 (0 votes)

Hard to play? Try these video lessons and learn fast.
                Kevins tab of the lightning solo


---------------------------------------9--------------------------------------------|
------------------9--------------------9--------------------------------------------|
------------9-----9h11p9----9------------11--9----------11--9--9------9--11^13>11p9-|
-------9/11-------9-------11------9/11---11--9---9/11---11--9--9--9h11--------------|
------------------------------------------------------------------------------------|
------------------------------------------------------------------------------------|


-------------------------------------------------------------------12-12---|
----------------------------14-12----------12-------12----12-12/14---------|
-----11--9------------13----------13----13-------------13------------------|
-11--------------9/14----------------14------------------------------------|
---------------------------------------------------------------------------|
---------------------------------------------------------------------------|


-14^15>14p12----------------------------|
-------------14---10-----12-------------|
------------------9---------14-12-------|
----------------------------------14----|
----------------------------------------|
----------------------------------------|


------------------------------------------------------|
------------------------------------------------------|
------9-11^14>11p9----------------------------9/11----|
-9h11--------------11-9-----------9-----------9/11----|
------------------------11-9-7/11---7-----9-----------|
------------------------------------------------------|
            
Hard to play? Try these video lessons and learn fast. | Correct




comments powered by Disqus
↑ Back to top | Tablatures and chords are parodies/interpretations of the original songs. You may use it for private study, scholarship, research or language learning purposes only