» » »

Keane, You Havent Told Me Anything Tabs (ver.1)

Artists:  A B C D E F G H I J K L M N O P Q R S T U V W X Y Z # 

You Havent Told Me Anything Tabs (ver.1)

Keane Tabs
Rating:
0/5 (0 votes)
You Havent Told Me Anything lessons Tabs too difficult? Try these video lessons and learn fast
                YOU HAVEN'T TOLD ME ANYTHING
KEANE

Album:PERFECT SYMMETRY


STANDARD TUNING - CAPO 3 (Scroll down for no-capo version)

INTRO:  Am - C - G - Am - C - F     x2

Riff (relative to capo):
E|----------------------|--------------------------|-----------|
B|----1-3----------1-3--|--------------------------|-----------|
G|--2-------0-0--2------|-0-0-0-2-0-0-0--0--0--0---|-0--0--0---|
D|----------------------|--------------------------|-----------|
A|----------------------|--------------------------|-----------|
E|----------------------|--------------------------|-----------|

|----------------------|--------------------------|-----------|
|----1-3----------1-3--|--------------------------|-----------|
|--2-------0-0--2------|-0-0-0-2------------------|-0--0--0---|
|----------------------|---------3-3-3--3--3--3---|-----------|
|----------------------|--------------------------|-----------|
|----------------------|--------------------------|-----------|

|----------------------|--------------------------|-----------|
|----1-3----------1-3--|--------------------------|-----------|
|--2-------0-0--2------|-0-0-0-2-0-0-0--0--0--0---|-0--0--0---|
|----------------------|--------------------------|-----------|
|----------------------|--------------------------|-----------|
|----------------------|--------------------------|-----------|

|----------------------|--------------------------|-----------|
|----1-3----------1-3--|--------------------------|-----------|
|--2-------0-0--2------|-0-0-0-2------------------|-0--0--0---|
|----------------------|---------3-3-3--3--3--3---|-----------|
|----------------------|--------------------------|-----------|
|----------------------|--------------------------|-----------|

VERSE:
       C
In the pearl grey room
G
One afternoon, in one afternoon
      F
What you gonna do?
  (F)                             G          F
I hang on your words but there's nothing new

           C
You take a beautiful thing
G            
Pull off a wing, pull off a wing
    F           (Em - F)
The safety pin
     (F)                   G        F
They never shine quite as bright again


CHORUS (intro riff played over the chords):
        G       Am      C    G
But you haven't told me anything
(G)    Am        C     F
That I didn't already know
        G       Am      C    G
No you haven't said a single thing
(G)    Am        C     F
That I didn't already know


VERSE(Same C - G - F - G progression):
Everything I love
Stuck in the mud, stuck in the mud
Stuck in a rut
Not a piece in your puzzle or a paper cut
So same time next week
Kiss on the cheek, kiss on the cheek
And say after me
Everything's tied up nice and neat


CHORUS (intro riff played over the chords):
        G       Am      C    G
But you haven't told me anything
(G)    Am        C     F
That I didn't already know
        G       Am      C    G
No you haven't sold me anything
(G)    Am        C     F
That I didn't already own

BRIDGE:
  Em       Am
I feel for you
  F       G
I really do
Em                       Am               F
Nothing adds up like you want it too
    Em       Am
No words can mend
      F      G
This fix I'm in
Em                           Am               F
Give me your words, I won't even blink
Em                              Am               F
Right between the eyes, I won't feel a thing


CHORUS (intro riff played over the chords):
        G       Am      C    G
But you haven't told me anything
(G)    Am        C     F
That I didn't already know
        G       Am      C    G
No you haven't said a single thing
(G)    Am        C     F
That I didn't already know


OUTRO:
       G       Am      C    G
No you haven't told me anything
(G)    Am        C     F
No you haven't told me anything
       G       Am      C    G
No you haven't told me anything
(G)    Am        C     F
No you haven't told me anything


NO CHORD (Riff)

--------------------------------------------------------------
STANDARD TUNING - NO CAPO 

INTRO:  Cm - Eb - Bb - Cm - Eb - Ab     x2

Riff (relative to capo):
E|----------------------|--------------------------|-----------|
B|----4-6----------4-6--|-------0------------------|-----------|
G|--5-------3-3--5------|-3-3-3---3-3-3--3--3--3---|-3--3--3---|
D|----------------------|--------------------------|-----------|
A|----------------------|--------------------------|-----------|
E|----------------------|--------------------------|-----------|

|----------------------|--------------------------|-----------|
|----4-6----------4-6--|-------0------------------|-----------|
|--5-------3-3--5------|-3-3-3---1-1-1--1--1--1---|-3--3--3---|
|----------------------|--------------------------|-----------|
|----------------------|--------------------------|-----------|
|----------------------|--------------------------|-----------|

|----------------------|--------------------------|-----------|
|----4-6----------4-6--|-------0------------------|-----------|
|--5-------3-3--5------|-3-3-3---3-3-3--3--3--3---|-3--3--3---|
|----------------------|--------------------------|-----------|
|----------------------|--------------------------|-----------|
|----------------------|--------------------------|-----------|

|----------------------|--------------------------|-----------|
|----4-6----------4-6--|-------0------------------|-----------|
|--5-------3-3--5------|-3-3-3---1-1-1--1--1--1---|-3--3--3---|
|----------------------|--------------------------|-----------|
|----------------------|--------------------------|-----------|
|----------------------|--------------------------|-----------|

VERSE:
       Eb
In the pearl grey room
Bb
One afternoon, in one afternoon
      Ab
What you gonna do?
  (Ab)                            Bb          Ab
I hang on your words but there's nothing new

           Eb
You take a beautiful thing
Bb            
Pull off a wing, pull off a wing
    Ab           (Gm - Ab)
The safety pin
     (Ab)                  Bb        Ab
They never shine quite as bright again


CHORUS (intro riff played over the chords):
        Bb       Cm      Eb    Bb
But you haven't told me anything
(Bb)   Cm        Eb    Bb
That I didn't already know
        Bb      Cm      Eb    Bb
No you haven't said a single thing
(Bb)   Cm        Eb    Ab
That I didn't already know


VERSE(Same Eb - Bb - Ab - Bb progression):
Everything I love
Stuck in the mud, stuck in the mud
Stuck in a rut
Not a piece in your puzzle or a paper cut
So same time next week
Kiss on the cheek, kiss on the cheek
And say after me
Everything's tied up nice and neat


CHORUS (intro riff played over the chords):
        Bb       Cm      Eb    Bb
But you haven't told me anything
(Bb)   Cm        Eb    Bb
That I didn't already know
        Bb      Cm      Eb    Bb
No you haven't sold me anything
(Bb)   Cm        Eb    Ab
That I didn't already own

BRIDGE:
  Gm       Cm
I feel for you
  Ab      Bb
I really do
Gm                       Cm               Ab
Nothing adds up like you want it too
    Gm       Cm
No words can mend
      Ab     Bb
This fix I'm in
Gm                           Cm               Ab
Give me your words, I won't even blink
Gm                              Cm               Ab
Right between the eyes, I won't feel a thing


CHORUS (intro riff played over the chords):
        Bb       Cm      Eb    Bb
But you haven't told me anything
(Bb)   Cm        Eb    Bb
That I didn't already know
        Bb      Cm      Eb    Bb
No you haven't said a single thing
(Bb)   Cm        Eb    Ab
That I didn't already know


OUTRO:
       Bb       Cm      Eb    Bb
No you haven't told me anything
(Bb)   Cm        Eb    Bb
No you haven't told me anything
       Bb       Cm      Eb    Bb
No you haven't told me anything
(Bb)   Cm        Eb    Bb
No you haven't told me anything


NO CHORD (Riff)
            
Submit corrections

comments powered by Disqus
↑ Back to top | Keane Tabs for You Havent Told Me Anything. Lyrics for acoustic guitar and electric guitar. Tablatures and chords are parodies/interpretations of the original songs. You may use it for private study, scholarship, research or language learning purposes only