» » »

Try Again Tabs (ver.2)

Artists:  A B C D E F G H I J K L M N O P Q R S T U V W X Y Z # 

Try Again Tabs (ver.2)

Keane
Rating:
0/5 (0 votes)

Hard to play? Try these video lessons and learn fast.
                e|-------14----------12----------14----|
B|-16--16--16--16--16--16--16--16--16--|
G|---13------18--13------18--13------18|
D|-------------------------------------|
A|-------------------------------------|
E|-------------------------------------|

e|-------12----------14----------12----|
B|-16--16--16--16--16--16--16--16--16--|
G|---13------18--13------18--13------18|
D|-------------------------------------|
A|-------------------------------------|
E|-------------------------------------|

e|-------14----------12----------------|
B|-16--16--16--16--16--16--16----------|
G|---13------18--13------18------------|
D|-------------------------------------|
A|-------------------------------------|
E|-------------------------------------|

enjoy!
            
Hard to play? Try these video lessons and learn fast. | Correct




comments powered by Disqus
↑ Back to top | Tablatures and chords are parodies/interpretations of the original songs. You may use it for private study, scholarship, research or language learning purposes only