» » »

Keane, Spiralling Chords (ver.3)

Artists:  A B C D E F G H I J K L M N O P Q R S T U V W X Y Z # 

Spiralling Chords (ver.3)

Keane Tabs
 Rating:
4/5 (4 votes)
Spiralling lessons Tabs too difficult? Try these video lessons and learn fast
                Spiralling - Keane

Standard Tuning
No Capo

through the majority of the song there is no guitar there is just 2
chords repeated by a piano (havnt tried figuring these out) but in the
chorus (the electronic sounding bit) these are the chords played on guitar.

       A#m     Cm      C#m    D#sus2  Fsus2

e-------6-------8-------9-------6-------8----|
b-------6-------8-------9-------6-------8----|
g-------6-------8-------9-------8-------10---|
d-------8-------10------11------8-------10---|
a-------8-------10------11------6-------8----|
E-------6-------8-------9-------x-------x----|

      D#sus2  Esus2    C#m     G#m      A#m

e-------6-------7-------9-------4--------6---|
b-------6-------7-------9-------4--------6---|
g-------8-------9-------9-------4--------6---|
d-------8-------9-------11------6--------8---|
a-------6-------7-------11------6--------8---|
E-------x-------x-------9-------4--------6---|

those are the chords the timing is a bit hard listen 
to the track and you should be able to pick it up.

e---6---6-8----9----6--8---8---|
b---6---6-8----9----6--8---8---|
g---6---6-8----9----8--10--10--|
d---8---8-10---11---8--10--10--|
a---8---8-10---11---6--8---8---|
E---6---6-8----9----x--x---x---|

    SLIDE up to 7th
     fret and then
    back down to 6th
          | 
e---6---6-7-6---8----4--6---6--|
b---6---6-7-6---8----4--6---6--|
g---8---8-9-8---8----4--6---6--|
d---8---8-9-8---10---6--8---8--|
a---6---6-7-6---10---6--8---8--|
E---x---x-x-x---8----4--6---6--|


its a catchy song
hope you like the tab!
            
Submit corrections

comments powered by Disqus
↑ Back to top | Keane Chords for Spiralling. Lyrics for acoustic guitar and electric guitar. Tablatures and chords are parodies/interpretations of the original songs. You may use it for private study, scholarship, research or language learning purposes only