» » »

Keane, Somewhere Only We Know Tabs (ver.1)

Artists:  A B C D E F G H I J K L M N O P Q R S T U V W X Y Z # 

Somewhere Only We Know Tabs (ver.1)

Keane Tabs
 Rating:
4/5 (4 votes)
Somewhere Only We Know lessons Tabs too difficult? Try these video lessons and learn fast
1
                SOMEWHERE ONLY WE KNOW
By Keane


INTRO 
e| --------------------------------------------|
B| ---5-5-2-0-2-0-2-3-3-3-2-0-2-3-2-0-2-3-2----|            
G| -2------------------------------------------|   
D| --------------------------------------------|
A| --------------------------------------------|
E| --------------------------------------------|


RIFF1 AND RIFF2
e| --------------------------------------------|
B| ---5-5-2-0-2-0-2-3-3-3-2-0-2-3-2-0-2-3-2----|            
G| -2------------------------------------------|   X 2
D| --------------------------------------------|
A| --------------------------------------------|
E| --------------------------------------------|

RIFFS 3,4 AND PRE-CHORUS
e| -----------------------------------------------------|
B| ---10-10-7----5-5------------------------------------|            
G| -6-----------6----7--7-7-7-7-6-4-6-7-6-4-6s7-7p6-----|   
D| -----------------------------------------------------|
A| -----------------------------------------------------|
E| -----------------------------------------------------|


CHORUS
e| ----------------------------|
B| --10-9-7-0-2-0-2-5-2-0------|            
G| ----------------------------|  X 2   
D| ----------------------------|
A| ----------------------------|
E| ----------------------------|

e| ----------------------------|
B| --2-0-5-2-0------2-0-55-2-0-|            
G| ----------------------------|  
D| ----------------------------|
A| ----------------------------|
E| ----------------------------|

PRE-CHORUS
e| -----------------------------------------------------|
B| ---10-10-7----5-5------------------------------------|            
G| -6-----------6----7--7-7-7-7-6-4-6-7-6-4-6s7-7p6-----|   
D| -----------------------------------------------------|
A| -----------------------------------------------------|
E| -----------------------------------------------------|

e| --------------------------------------------------------|
B| ---10-10-7-5-2-0-2h5-3-2--3-3-3-3-2-0-2-2h3-2-0-2-2h3-5-|  
G| -6------------------------------------------------------|   
D| --------------------------------------------------------|
A| --------------------------------------------------------|
E| --------------------------------------------------------|

CHORUS (FINAL)
e| ----------------------------|
B| --10-9-7-0-2-0-2-5-2-0------|            
G| ----------------------------|  X 2   
D| ----------------------------|
A| ----------------------------|
E| ----------------------------|


e| ------------------------------|
B| --2-0-5-2-0------2-0-55-2-0---|            
G| ------------------------------|  
D| ------------------------------|
A| ----------------------------0-|
E| ------------------------------|

I have written this tab only for you Emilia, don't forget that I love you!!
Yo he escrito esta canción para ti emilia, no olvides que yo te amo
            
Submit corrections

comments powered by Disqus
↑ Back to top | Keane Tabs for Somewhere Only We Know. Lyrics for acoustic guitar and electric guitar. 1 Tablatures and chords are parodies/interpretations of the original songs. You may use it for private study, scholarship, research or language learning purposes only