» » »

Snowed Under Bass tabs (ver.1)

Artists:  A B C D E F G H I J K L M N O P Q R S T U V W X Y Z # 

Snowed Under Bass tabs (ver.1)

Keane
Rating:
0/5 (0 votes)

Tabs too difficult? Try these video lessons and learn fast.
                -------------------------------------------------------------------------------
                             Snowed Under - Keane
-------------------------------------------------------------------------------

I love this song.

Intro
G|----3h5----------------3h5--------------|
D|--3-----5----3h5-----3-----5----3h5----3|
A|-----------5-----3------------5-----3---|
E|----------------------------------------|

After "Many long Years" + Bridge
G|-2-20-------------3h5---------------3h5-------------------------------------------|
D|------2-0-------3-----5----3h5----3-----5----3h5---------3h5-------------0--02--23|
A|----------2-1------------5-----3-----------5-----3---5-53----1-1p0-1-1------------|
E|----------------------------------------------------------------------------------|

Chorus
G|-----------------------------------------|
D|3--32--0--------------------3h5----------|
A|--------01-11p0-3-3---5-5p3------11p0-3-3|
E|-----------------------------------------|x2

2nd Verse + 2nd Bridge

G|----3h5---------------3h5---------------------------------------------|
D|--3-----5----3h5----3-----5----3h5----------3h5--------------0--02--23|
A|-----------5-----3-----------5-----3---5-5p3-----1-1p0-1-1------------|
E|----------------------------------------------------------------------|


Chorus
G|--------------------------------------------|
D|3--32--0--------------------3h5------------3|
A|--------01-11p0-3-3---5-5p3-----11p0-3-3----|
E|--------------------------------------------|x2

After Piano Solo
G|--------|
D|-0--2--3|
A|--------|
E|--------|

Final Chorus
G|-----------------------------------------|
D|3--32--0--------------------3h5----------|
A|--------01-11p0-3-3---5-5p3------11p0-3-3|
E|-----------------------------------------|x2

End On
G|---|
D|-3-|
A|---|
E|---|

===================================================================================
            
Tabs too difficult? Try these video lessons and learn fast.




comments powered by Disqus
↑ Back to top | Tablatures and chords are parodies/interpretations of the original songs. You may use it for private study, scholarship, research or language learning purposes only