» » »

On A Day Like Today Bass tabs (ver.1)

Artists:  A B C D E F G H I J K L M N O P Q R S T U V W X Y Z # 

On A Day Like Today Bass tabs (ver.1)

Keane
Rating:
0/5 (0 votes)

Tabs too difficult? Try these video lessons and learn fast.
                --------------------------------------------------------------------------
	                  On a Day Like Today - Keane
--------------------------------------------------------------------------
Standard tuning
Tempo: around 72 (I know you dont care, but whatever)
Key: F major (bla bla bla)

Verse 1 and Chorus 1: no bass

until....Verse 2:

"Could never seem to say..."

  Am      F        Am      F
G]----------------|----------------| ]
D]-------2---3----|-------2---3----|  ]
A]0---3---------3-|0---3---------3-|   ]
E]----------------|----------------|    ]
                                        ] All of this is the 1st
  Gm7     C        Gm7    C             ] verse (play twice)
G]----------------|----------------|    ]
D]----------------|----------------|   ]
A]----1-3---1---3-|----1/8---7-----|  ]
E]3---------------|3-------------8-| ]

Chorus 2: "I saw You..." Play until bridge something thing

  Bbmaj7           F               
G]----------------|----------------|  
D]----------------|----------------|
A]----5-7---8-----|----5-7---8---7-|
E]6-------------8-|1---------------|

  C                Dm              
G]----------------|----------------|
D]------2---3---2-|----------------|
A]3---3-----------|5---5/7-/8---7--|
E]----------------|----------------|

 Bbmaj7           F               
G]----------------|----------------|
D]----------------|----------------|
A]----5-7---8-----|----5-7---8---7-|
E]6-------------8-|1---------------|

  C                Dm              
G]----------------|----------------|
D]------2---3---5\|----------------|
A]3---3-----------|5---5/12--10----|
E]----------------|--------------8-|


Bridge or something: "And I don't Know why"

 Bbmaj7           F               
G]----------------|----------------|
D]----------------|----------------|
A]----5-7---8-----|----5-7---8---7-|
E]6-------------8-|1---------------|
                                        Three times
  C                Dm              
G]----------------|----------------|
D]------2---3---5\|----------------|
A]3---3-----------|5---5/12--10----|
E]----------------|--------------8-|

Then:

Bbmaj7           F               
G]----------------|----------------|
D]----------------|-3-3-3--33-3-3--|
A]----5-7---8-----|----------------|
E]6-------------8-|----------------|
                                        
  C                Dm              
G]----------------|----------------|
D]----------------|----------------|
A]3-3-3--33-3--3--|5-5-5--55-5-5---|
E]----------------|----------------|


I Saw You...........

Bbmaj7           F               
G]----------------|----------------|
D]----------------|-3-3-3--33-3-3--|
A]----------------|----------------|
E]6-6-6--66--6-6--|----------------|
                                        
  C                Dm              
G]----------------|----------------|
D]----------------|----------------|
A]3-3-3--33-3--3--|5-5--5//10//12--|
E]----------------|----------------|

Until the second "I Cant Find the Words...."

Bbmaj7           F               
G]----------------|----------------|
D]----------------|3---------------|
A]----------------|----------------|
E]6-6-6--66--6-6--|----------------|

  C                Dm              
G]----------------|----------------|
D]----------------|----------------|
A]3---------------|5---------------|
E]----------------|----------------|

Bbmaj7           F               
G]----------------|----------------|
D]----------------|3---------------|
A]----------------|----------------|
E]6---------------|----------------|

  C                Dm              
G]----------------|----------------|
D]----------------|----------------|
A]3---------------|5---------------|
E]----------------|----------------|

Bbmaj7            F               
G]----------------|----------------|
D]----------------|3---------------|
A]----------------|----------------|
E]6---------------|----------------|

  C                Dm              
G]----------------|----------------|
D]----------------|----------------|
A]3---------------|5---------------|
E]----------------|----------------|

Bbmaj7                          
G]----------------|
D]----------------|
A]----------------|
E]6---------------|  I think I screwed up the outro but i know its ok
            
Tabs too difficult? Try these video lessons and learn fast.


comments powered by Disqus
↑ Back to top | Tablatures and chords are parodies/interpretations of the original songs. You may use it for private study, scholarship, research or language learning purposes only