» » »

Frog Prince Bass tabs (ver.1)

Artists:  A B C D E F G H I J K L M N O P Q R S T U V W X Y Z # 

Frog Prince Bass tabs (ver.1)

Keane
Rating:
0/5 (0 votes)

Hard to play? Try these video lessons and learn fast.
                Intro
G|----------------------|
D|---10--------10-------|
A|-8----8~---8----8-\1~-|
E|----------------------|

Verse 1 x4
G|-------------|
D|----10-------|
A|-8-----8~\1~-|
E|-------------|

G|------------------------------------------------------------|
D|------------------------------------------------------------|
A|-3(x14)1-1---3(x14)-1-1---3(x8)--1(x6)-00--------00-1-3(x8)-|
E|-------------------------------------------3(x8)------------|

Verse 2
            x3                    1s not 11s
G|-----------------------|--------------------|
D|-----------------------|--------------------|
A|-8---8-8-\-1---1-0-----|-8---8-8-\-11111101-|
E|-------------------3-1-|--------------------|

G|------------------------------------------------------------|
D|------------------------------------------------------------|
A|-3(x14)1-1---3(x14)-1-1---3(x8)--1(x6)-00--------00-1-3(x8)-|
E|-------------------------------------------3(x8)------------|


Chorus      (x2)
G|--------------------------------------------------------------------------|
D|------------------------3-------------------------------------------------|
A|-------------------5555---5-1-0-1-3-1-----------------33333333-111-0-1-00-|
E|-1111-11-3333-33-----------------------1111-11-3333-33--------------------|

Cause now we all know
G|-------------------------------------------------------|
D|-------------------------------------------------------|
A|-111-0-1-0-1---333-1-3-1-3---111-0-1-0-1---111-0-1-0-1-|
E|-------------------------------------------------------|

Bridge
             x2
G|------------------------------------------|-----------------------------|
D|------7--------------------2--------------|-5-3---5-3-------------------|
A|-5--5---5---3-3-3-3---0--0---0----1-1-3-3-|-----5-----5---3---1-0-1h3-1-|
E|------------------------------------------|-----------------------------|


Chorus


G|---------------------------|
D|---------------------------|
A|-111-0-1-0-1---333-1-3-1-3-|
E|---------------------------|


Chorus


End on
G|----|
D|----|
A|----|
E|1~--|
            
Hard to play? Try these video lessons and learn fast. | Correct




comments powered by Disqus
↑ Back to top | Tablatures and chords are parodies/interpretations of the original songs. You may use it for private study, scholarship, research or language learning purposes only