» » »

Keane, A Bad Dream Tabs (ver.2)

Artists:  A B C D E F G H I J K L M N O P Q R S T U V W X Y Z # 

A Bad Dream Tabs (ver.2)

Keane Tabs
 Rating:
4.2/5 (5 votes)
A Bad Dream lessons Tabs too difficult? Try these video lessons and learn fast
                
A Bad Dream by Keane

Tuning: Regular

The tabs that were already posted weren't correct so i guess i had to tab it out 
on people..its not THAT hard..

e|-3--3--3--3----1--1--1--1----1--1--1--1----------------------|
B|-4--4--4--4----2--2--2--2----2--2--2--2----4--4--4--4--------|
G|-3--3--3--3----3--3--3--3----1--1--1--1----5--5--5--5--------|
D|-5--5--5--5--------------------------------6--6--6--6--------|
A|-6--6--6--6--------------------------------------------------|
E|-------------------------------------------------------------|

The first chord is a lil tricky..just bridge your index over the last 3 strings on the 
fret, middle finger on the 4th, and ring and pinky on the 5 and 6 frets..simple as 
if your fingers are too small like mine just fret the last 3 strings..

ALTERNATIVE TO THIS SONG:
Tuning: Eb A D G B E
e|-------------------------------------------------------------|
B|-8--8--8--8----6--6--6--6----6--6--6--6----4--4--4--4--------|
G|-8--8--8--8----6--6--6--6----6--6--6--6----5--5--5--5--------|
D|-8--8--8--8----8--8--8--8----6--6--6--6----6--6--6--6--------|
A|-6--6--6--6----8--8--8--8----4--4--4--4----6--6--6--6--------|
Eb|0--0--0--0----7--7--7--7----5--5--5--5----0--0--0--0--------|

THE LAST STRING IS OPTIONAL..cuz its tricky...your choice if u want that extra bass in 
not..and tune the last string to Eb if you chose to play the last string


If u want to play the intro tune your guitar to Eb A D G B E

e|---------------------------|
B|---------------------------|
G|---------------------------|
D|----1-----1-----1----1-----|
A|---------------------------|
Eb|-0-----0----0-------------|
            
Submit corrections

comments powered by Disqus
↑ Back to top | Keane Tabs for A Bad Dream. Lyrics for acoustic guitar and electric guitar. Tablatures and chords are parodies/interpretations of the original songs. You may use it for private study, scholarship, research or language learning purposes only