» » »

Kd Lang, Trail Of Broken Hearts Chords (ver.1)

Artists:  A B C D E F G H I J K L M N O P Q R S T U V W X Y Z # 

Trail Of Broken Hearts Chords (ver.1)

Kd Lang Tabs
Rating:
0/5 (0 votes)
Trail Of Broken Hearts lessons Tabs too difficult? Try these video lessons and learn fast
                Standard Tuning

A great song by a legend of our time....



Trail Of Broken Hearts – K.D. Lang



Intro x 2
				
e  	-----3---2-------l  ----0
B  	-----------5---3-l  ----0
G 	-----------------l  ----1
D 	-----------------l  ----2
A 	-----------------l  ----2
E 	-----------------l  ----0



(Mute)		Am
trail of broken hearts
		E
looking back at you
		Am
now and from the start
		E		
these words will travel true
		Am
the Godspeed of trust
       Cmaj7       D
will settle the dust we've been
      E	
passing through


(Intro part played again) x 1

				
e  	-----3---2-------l   ----0
B  	-----------5---3-l   ----0
G 	-----------------l   ----1
D 	-----------------l   ----2
A 	-----------------l   ----2
E 	-----------------l   ----0

(Mute)		Am
broken trail so long
		E
a long and tired past
		Am
emptiness has gone
			E
I've found this place at last
		
Am
and here will remain
         Cmaj7    D
with only the aim of staying
   E
sure and fast
		F#m
leaving just a part
Am		E
down the trail of broken hearts

Solo

(Intro part played again) x 1

e  	-----3---2-------l   ----0
B  	-----------5---3-l   ----0
G 	-----------------l   ----1
D 	-----------------l   ----2
A 	-----------------l   ----2
E 	-----------------l   ----0



(Mute)		Am
trail of broken hearts
		E
looking back at you
		Am	
now and from the start
		E
these words will travel true
		Am	
the Godspeed of trust
       Cmaj7       D
will settle the dust
			E
we've been passing through

(Intro part played again) x 1

				
e  	-----3---2-------l   ----0
B  	-----------5---3-l   ----0
G 	-----------------l   ----1
D 	-----------------l   ----2
A 	-----------------l   ----2
E 	-----------------l   ----0

		F#m
leaving just a part
Am	           E
down the trail of broken hearts
            
Submit corrections

comments powered by Disqus
↑ Back to top | Kd Lang Chords for Trail Of Broken Hearts. Lyrics for acoustic guitar and electric guitar. Tablatures and chords are parodies/interpretations of the original songs. You may use it for private study, scholarship, research or language learning purposes only