» » »

Kc And The Sunshine Band, Boogie Shoes Tabs (ver.1)

Artists:  A B C D E F G H I J K L M N O P Q R S T U V W X Y Z # 

Boogie Shoes Tabs (ver.1)

Kc And The Sunshine Band Tabs
Rating:
4/5 (1 vote)
Boogie Shoes lessons Tabs too difficult? Try these video lessons and learn fast
                -------------------------------------------------------------------------------
-------------------------------------------------------------------------------

Tuning: e B G D A E

e|---------------------|---------------------|
B|---------------------|---------------------|
G|---------------------|---------------------|
D|---------------------|---------------------|
A|-----------8-10p8-10-|-----------8-10p8-10-|
E|-6---/10-------------|-6---/10-------------|

e|---------------------|---------------------|
B|---------------------|---------------------|
G|---------------------|---------------------|
D|---------------------|---------------------|
A|-----------8-10p8-10-|-----------8-10p8-10-|
E|-6---/10-------------|-6---/10-------------|

e|---------------------|---------------------|
B|---------------------|---------------------|
G|---------------------|---------------------|
D|---------------------|---------------------|
A|-----------8-10p8-10-|-----------8-10p8-10-|
E|-6---/10-------------|-6---/10-------------|
   Girl, To Be With You Is My Fav'rite Thing


e|---------------------|---------------------|
B|---------------------|---------------------|
G|---------------------|---------------------|
D|---------------------|---------------------|
A|-----------8-10p8-10-|-----------8-10p8----|
E|-6---/10-------------|-6---/10----------10-|
                      ...Uh Huh

e|---------------------|---------------------|
B|---------------------|---------------------|
G|---------------------|---------------------|
D|-----------8-10p8-10-|-----------8-10p8----|
A|-6---/10-------------|-6---/10----------10-|
E|---------------------|---------------------|
   And I Can't Wait Til I See You Again


e|---------------------|---------------------|
B|---------------------|---------------------|
G|---------------------|---------------------|
D|---------------------|---------------------|
A|-----------8-10p8-10-|-----------8-10p8----|
E|-6---/10-------------|-6---/10----------10-|
                      Yeah, Yeah

e|-----------------------|---------------------|
B|-----------------------|---------------------|
G|-----------------------|---------------------|
D|-----------10-12p10----|-----------8-10p8-10-|
A|-8---/12------------12-|-6---/10-------------|
E|-----------------------|---------------------|
     I Want To Put On        My My My My My

e|---------------------|---------------------|
B|---------------------|---------------------|
G|---------------------|---------------------|
D|---------------------|---------------------|
A|-----------8-10p8-10-|-----------8-10p8----|
E|-6---/10-------------|-6---/10----------10-|
 Boogie Shoes Just To Boogie With You, Yeah

e|-----------------------|---------------------|
B|-----------------------|---------------------|
G|-----------------------|---------------------|
D|-----------10-12p10-12-|-----------8-10p8----|
A|-8---/12---------------|-6---/10----------10-|
E|-----------------------|---------------------|
     I Want To Put On        My My My My My

e|---------------------|---------------------|
B|---------------------|---------------------|
G|---------------------|---------------------|
D|---------------------|---------------------|
A|-----------8-10p8-10-|-----------8-10p8-10-|
E|-6---/10-------------|-6---/10-------------|
 Boogie Shoes Just To Boogie With You, Yeah

e|---------------------|---------------------|
B|---------------------|---------------------|
G|---------------------|---------------------|
D|---------------------|---------------------|
A|-----------8-10p8-10-|-----------8-10p8-10-|
E|-6---/10-------------|-6---/10-------------|
     I Want To Do It 'til The Sun Comes Up

e|---------------------|---------------------|
B|---------------------|---------------------|
G|---------------------|---------------------|
D|---------------------|---------------------|
A|-----------8-10p8-10-|-----------8-10p8----|
E|-6---/10-------------|-6---/10----------10-|
                      ...Uh-Huh

e|---------------------|---------------------|
B|---------------------|---------------------|
G|---------------------|---------------------|
D|-----------8-10p8-10-|-----------8-10p8----|
A|-6---/10-------------|-6---/10----------10-|
E|---------------------|---------------------|
      I Want To Do It   'til I Can't Get Enough

e|---------------------|---------------------|
B|---------------------|---------------------|
G|---------------------|---------------------|
D|---------------------|---------------------|
A|-----------8-10p8-10-|-----------8-10p8----|
E|-6---/10-------------|-6---/10----------10-|
                      Yeah, Yeah

e|-----------------------|---------------------|
B|-----------------------|---------------------|
G|-----------------------|---------------------|
D|-----------10-12p10----|-----------8-10p8----|
A|-8---/12------------12-|-6---/10----------10-|
E|-----------------------|---------------------|
     I Want To Put On        My My My My My

e|---------------------|---------------------|
B|---------------------|---------------------|
G|---------------------|---------------------|
D|---------------------|---------------------|
A|-----------8-10p8-10-|-----------8-10p8----|
E|-6---/10-------------|-6---/10----------10-|
 Boogie Shoes Just To Boogie With You, Yeah

e|-----------------------|---------------------|
B|-----------------------|---------------------|
G|-----------------------|---------------------|
D|-----------10-12p10----|-----------8-10p8-10-|
A|-8---/12------------12-|-6---/10-------------|
E|-----------------------|---------------------|
   I Want To Put On        My My My My My

e|---------------------|------------------|
B|---------------------|------------------|
G|---------------------|------------------|
D|---------------------|----------------8-|
A|-----------8-10p8-10-|-----------8-10---|
E|-6---/10-------------|-6---/10----------|
 Boogie Shoes Just To Boogie With You, Yeah

guitar solo:
e|----------------------------------------------------------------------|
B|----------------------------------------------------------------------|
G|----------------------------------------------------------------------|
D|-10^(12)-10---8-10-8-8---10^(12)---10-10^(12)-10-8-10-8-8---8-10^(12)-|
A|----------------------------------------------------------------------|
E|----------------------------------------------------------------------|

e|-------------------------------------------------------------------------|
B|-------------------------------------------------------------------------|
G|-------------------------------------------------------------------------|
D|-6//9-10-10^(12)-10---8-10-8-8------8---6//9-10-10^(12)-10---8-10-8-8----|
A|---------------------------------10--------------------------------------|
E|-------------------------------------------------------------------------|

e|----------------------------------------------------------------------|
B|----------------------------------8-----------------------------------|
G|---------------------------10-10----10-------10-10\8--8---------------|
D|-8-10^(12)-6//9-10-10^(12)-------------10/12------------10-10^(12)-10-|
A|----------------------------------------------------------------------|
E|----------------------------------------------------------------------|
                               I Want To Put On My My My My My

e|-------------------------------------------------------------------------|
B|-------------------------------------------------------------------------|
G|---------------------------------------------------------------------10--|
D|-8-8--3/5-8p5-8p5-8p5h8p5h8p5---------------------------------8-/12------|
A|-------------------------------------------8------8-8/10-10--------------|
E|-----------------------------8/10-8-6--7/9----7/9------------------------|
   Boogie Shoes Just To Boogie With You, Yeah               I Want To Put On

e|-----------------------------------------------------------------|
B|-----------------------------------------------------------------|
G|-10^(12)-10-8----------------------------------------------------|
D|--------------8-8------8-----------------------------------------|
A|------------------8h10---10-----------8-10p8-10-------8--10p8----|
E|----------------------------6--6/9-6------------6--10---------10-|
           My My My My My Boogie Shoes Just To Boogie With You, Yeah

e|-----------------------|---------------------|
B|-----------------------|---------------------|
G|-----------------------|---------------------|
D|-----------10-12p10-12-|-----------8-10p8----|
A|-8---/12---------------|-6---/10----------10-|
E|-----------------------|---------------------|
   I Want To Put On        My My My My My

e|---------------------|---------------------|
B|---------------------|---------------------|
G|---------------------|---------------------|
D|---------------------|---------------------|
A|-----------8-10p8-10-|-----------8-10p8----|
E|-6---/10-------------|-6---/10----------10-|
 Boogie Shoes Just To Boogie With You, Yeah

e|-----------------------|---------------------|
B|-----------------------|---------------------|
G|-----------------------|---------------------|
D|-----------10-12p10-12-|-----------8-10p8----|
A|-8---/12---------------|-6---/10----------10-|
E|-----------------------|---------------------|
   I Want To Put On        My My My My My

e|---------------------|---------------------|
B|---------------------|---------------------|
G|---------------------|---------------------|
D|---------------------|---------------------|
A|-----------8-10p8-10-|-----------8-10p8----|
E|-6---/10-------------|-6---/10----------10-|
 Boogie Shoes Just To Boogie With You, Yeah

e|-----------------------|---------------------|
B|-----------------------|---------------------|
G|-----------------------|---------------------|
D|-----------10-12p10-12-|-----------8-10p8----|
A|-8---/12---------------|-6---/10----------10-|
E|-----------------------|---------------------|
   I Want To Put On        My My My My My

e|---------------------|-6-------------------|
B|---------------------|-6-------------------|
G|---------------------|---6-8^(10)--8^(10)--|
D|---------------------|---------------------|
A|---------------------|---------------------|
E|-6-------------------|---------------------|
 Boogie Shoes Just To Boogie With You      Yeah


************************************

| /   slide up
| \   slide down
| h   hammer-on
| p   pull-off
| ~   vibrato
| +   harmonic
| x   Mute note
| b   Bend
| pb  Pre-bend
| br  Bend release
| pbr Pre-bend release
| brb Bend release bend

************************************
            
Submit corrections

comments powered by Disqus
↑ Back to top | Kc And The Sunshine Band Tabs for Boogie Shoes. Lyrics for acoustic guitar and electric guitar. Tablatures and chords are parodies/interpretations of the original songs. You may use it for private study, scholarship, research or language learning purposes only