» » »

Boogie Shoes Bass tabs (ver.1)

Artists:  A B C D E F G H I J K L M N O P Q R S T U V W X Y Z # 

Boogie Shoes Bass tabs (ver.1)

Kc And The Sunshine Band
Rating:
0/5 (0 votes)

Hard to play? Try these video lessons and learn fast.
                bass tab
provided by Steve Klues
 
intro:
------------------------------
-21----21----21----21---------
---2-2---2-2---2-2---2-2------
------------------------------
verse:
--------------------------------21----21-----------
-21----21-----21----21----212-2---2-2-------21-----
---2-2----2-2---2-2---2-2---------------2-2---2-2--
---------------------------------------------------
chorus:
---------------------------------------------------
-124----2--21----21----124----2--21----21----------
-------------2-2---2-2-------------2-2---2-2-------
----2---------------------2------------------------
            
Hard to play? Try these video lessons and learn fast. | Correct




comments powered by Disqus
↑ Back to top | Tablatures and chords are parodies/interpretations of the original songs. You may use it for private study, scholarship, research or language learning purposes only