» » »

Katzenjammer, Tea With Cinnamon Tabs (ver.1)

Artists:  A B C D E F G H I J K L M N O P Q R S T U V W X Y Z # 

Tea With Cinnamon Tabs (ver.1)

Katzenjammer Tabs
Rating:
0/5 (0 votes)
Tea With Cinnamon lessons Tabs too difficult? Try these video lessons and learn fast
                

Tuning: Standard

D                       A
Wake again to tea with cinnamon
            G                D                   
Some honey on a spoon it is almost noon
 (A)      D                          A                  
Walking down the stairs to shed my morning tears
               G                     D
Just can't be satisfied, Lord knows that I've tried
           A               G  Gm D
That I've tried, that I've tried

            Em/G                   G
And it's so beautiful, it's so beautiful,
         D  A  Bm  (D)
It's so beautiful
              G  A           D
But it's not real, it's not real

e|-------------5-------------------------------5----------------------|
B|------7-5-7----5-7---7-5-7------2-----7-5-7----5-7---7-5-7------2---|
G|---------------------------7----2--------------------------7----2---|
D|--------------------------------2-------------------------------2---|
A|--------------------------------------------------------------------|
E|--------------------------------------------------------------------|
(originally played on accordion and xylophone)

 D                           A
Bright the sun, the day is almost gone
           G                     D        (A)
I sit and drink champagne, I am very sane
 D               
Smell this tea
              A
And dream of what could be
          G
Defeated yet again
             D     
By tea with cinnamon
          A
As many braver men
                G      Gm  D
I might bounce back my friend

            Em/G                   G
And it's so beautiful, it's so beautiful,
         D  A  Bm  (D)
It's so beautiful
              G  A           D
But it's not real, it's not real

e|-------------5-------------------------------5-------------------------------------------|
B|------7-5-7----5-7---7-5-7------2-----7-5-7----5-7---7-5-7------2------------------------|
G|---------------------------7----2--------------------------7----2------2--1--2--2/3--2~--|
D|--------------------------------2-------------------------------2------------------------|
A|-----------------------------------------------------------------------------------------|
E|-----------------------------------------------------------------------------------------|

 D                           A
Now it's night and I don't feel so bright
             G                       D       (A)
My pulse is beating fast, this will never last
         D                          A
Another day is gone and I can not outrun
             G                    D
The time is closing in, let the sleep begin
          A             G  Gm  D
Let it begin, let it begin 

             Em/G                G
And it's so beautiful, it's so beautiful,
        D   A  Bm  (D)
It's so beautiful
             Em/G                 G
And it's so beautiful, it's so beautiful,
         D   A   Bm  (D)
It's so beautiful
              G   A                              
But it's not real
             Em/G                   G
Yeah, it's so beautiful, it's so beautiful,
         D  A  Bm  (D)
It's so beautiful
              G  A           D
But it's not real, it's not real

e|-------------5-------------------------------5----------------------|
B|------7-5-7----5-7---7-5-7------2-----7-5-7----5-7---7-5-7------2---|
G|---------------------------7----2--------------------------7----2---|
D|--------------------------------2-------------------------------2---|
A|--------------------------------------------------------------------|
E|--------------------------------------------------------------------|

[fade out]
            

comments powered by Disqus
↑ Back to top | Katzenjammer Tabs for Tea With Cinnamon. Lyrics for acoustic guitar and electric guitar. Tablatures and chords are parodies/interpretations of the original songs. You may use it for private study, scholarship, research or language learning purposes only