>
 >
Waking Up In Vegas 2

Waking Up In Vegas 2 Guitar Tabs

Katy Perry - Waking Up In Vegas 2 chords, tabs, tablatures, lyrics

Guitar lessons | Add/correct | Request | Top 50 tabs Artists:  A B C D E F G H I J K L M N O P Q R S T U V W X Y Z 0-9

Waking Up In Vegas 2 Guitar Tabs – Katy Perry

CD, Sheet music, Poster

Do you like Waking Up In Vegas 2? Share with your friends now
Bass TabsChordsChords v2Chords v3Chords v4Chords v5TabsTabs v2Tabs v3Ukulele
-- Katy Perry  Waking Up in Vagas --

standard tuning EADGBE


Intro: 
E||-----------|  
B||-----------|
G||-----------|
D||-3---------| 
A||-3---------|  
E||-1---------|  

Verse: 
(guitar 1) x2
E||---------------------------------------------------------------------|  
B||---------------------------------------------------------------------|
G||----------------------------------7777777777777777-------------------|
D||-33333333333333333333333333333333-7777777777777777-8888888888888888--| 
A||-33333333333333333333333333333333-5555555555555555-8888888888888888--|  
E||-11111111111111111111111111111111------------------6666666666666666--|  

(guitar 2) x2
E||--------------------------------------------|  |------------------------| 
B||--------------------------------------------|  |------------------------| 
G||-14-14-14-9-9-10-10-10-10-10-10-10-10-10-10-|x3|-17--15--14--12--15--14-| 
D||-X-X--X--X-X-X--X--X--X--X--X--X--X--X--X--|  |-X---X---X---X---X---X--| 
A||-12-12-12-7-7-8--8--8--8--8--8--8--8--8--8--|  |-15--13--12--10--13--12-| 
E||--------------------------------------------|  |------------------------| 


Pre chorus:
(guitar 1)
E||----------------------------------------------------------------|  
B||----------------------------------------------------------------|
G||-5-5-7-7--------5-5-7-7-----------------5-5-7-7--------55555555-|
D||-5-5-7-7-8-8----5-5-7-7-8-8---10-10-10--5-5-7-7-8-8----55555555-| 
A||-3-3-5-5-8-8----3-3-5-5-8-8---10-10-10--3-3-5-5-8-8----33333333-|  
E||---------6-6------------6-6---8- 8- 8-----------6-6-------------|   

(guitar 2)
E||----------------------------------------------------------------|  
B||----------------------------------------------------------------|
G||-5-5-7-7-3-3----5-5-7-7---17-15-14-12---5-5-7-7-3-3----55555555-|
D||-X-X-X-X-X-X----X-X-X-X---X--X--X--X----X-X-X-X-X-X----55555555-| 
A||-3-3-5-5-1-1----3-3-5-5---15-13-12-10---3-3-5-5-1-1----33333333-|  
E||----------------------------------------------------------------|   


Chorus: 
E||-------------------|  
B||-------------------|
G||-----5-5-3-3--5555-|X4
D||-3-3-5-5-3-3--5555-| 
A||-3-3-3-3-1-1--3333-|  
E||-1-1---------------|  


Verse 2(same as verse 1)  

Pre chorus 

Chorus 


Bridge: 
E||--------------------------------------------|  
B||--------------------------------------------|
G||-8---------------------------------8--------|
D||-8--------333-555-888-10-10-10-10--8--------| 
A||-6--------333-555-888-10-10-10-10--6--------|  
E||----------111-333-666-8 -8--8--8------------|  

 
then pre chorus:
(guitar 1)
E||----------------------------------------------------------------|  
B||----------------------------------------------------------------|
G||-5-5-7-7--------5-5-7-7-----------------5-5-7-7--------55555555-|
D||-5-5-7-7-8-8----5-5-7-7-8-8---10-10-10--5-5-7-7-8-8----55555555-| 
A||-3-3-5-5-8-8----3-3-5-5-8-8---10-10-10--3-3-5-5-8-8----33333333-|  
E||---------6-6------------6-6---8- 8- 8-----------6-6-------------|   

(guitar 2)
E||----------------------------------------------------------------|  
B||----------------------------------------------------------------|
G||-5-5-7-7-3-3----5-5-7-7---17-15-14-12---5-5-7-7-3-3----55555555-|
D||-X-X-X-X-X-X----X-X-X-X---X--X--X--X----X-X-X-X-X-X----55555555-| 
A||-3-3-5-5-1-1----3-3-5-5---15-13-12-10---3-3-5-5-1-1----33333333-|  
E||----------------------------------------------------------------|  
 
then:
(guitar 1)
E||------------|  |------|
B||------------|  |------|
G||----5--3----|x3|------|
D||-3--5--3----|  |-3----|
A||-3--3--1----|  |-3----|
E||-1----------|  |-1----|

(guitar 2)palm mute the 1st part
E||-------|   |-13--15--13--15--13--15--13--15-| 
B||-------|   |--------------------------------| 
G||---8---|x11|--------------------------------| 
D||--8-8--|   |--------------------------------| 
A||-6-----|   |--------------------------------| 
E||-------|   |--------------------------------| 


end with chorus:
(guitar 1)
E||-------------------|  
B||-------------------|
G||-----5-5-3-3--5555-|x12
D||-3-3-5-5-3-3--5555-| 
A||-3-3-3-3-1-1--3333-|  
E||-1-1---------------|  

(guitar 2)
E||-13--15--13--15--13-15--|  |-13-15-------13-15-17-----------|  |-----| 
B||------------------------|  |-------13-------------18-15-13--|  |-17b-| 
G||------------------------|x4|--------------------------------|x3|-----| 
D||------------------------|  |--------------------------------|  |-----| 
A||------------------------|  |--------------------------------|  |-----| 
E||------------------------|  |--------------------------------|  |-----| 





Comments


Popular Katy Perry tabs & chords
Last Friday Night 3 Chords
Legendary Lovers 1 Chords
One Of The Boys Chords
Pearl 1 Chords
Roar 1 Chords
Thinking Of You 8 Chords
Fingerprints Tabs
I Kissed A Girl Tabs
I Kissed A Girl 1 Tabs
I Kissed A Girl 2 Tabs


Song lyrics



↑ Back to top | Tablatures and chords are parodies/interpretations of the original songs. You may use it for private study, scholarship, research or language learning purposes only
© 2014 AZChords.com Contact us | Privacy policy | DMCA | Add/correct tabs | Request tabs | Top 50 tabs