» » »

I Kissed A Girl Tabs (ver.3)

Artists:  A B C D E F G H I J K L M N O P Q R S T U V W X Y Z # 

I Kissed A Girl Tabs (ver.3)

Katy Perry
Rating:
0/5 (0 votes)

Hard to play? Try these video lessons and learn fast.
                verse
e|-----------------------------------------------------------------|
B|-----------------------------------------------------------------|
G|--2--------4--------5-------7-------10-------9-------------------|
D|--2--------4--------5-------7-------10-------9-------------------|
A|--0--------2--------3-------5-------8--------7-------------------|
E|-----------------------------------------------------------------|

chorus
e|-------------------------------------------------------------------------|
B|-------------------------------------------------------------------------|
G|---2----------5--------7-----------7/9--10----10-10--9---9-9-------------|
D|---2----------5--------7-----------7/9--10----10-10--9---9-9-------------|
A|---0----------3--------5-----------5/7--8-----8--8---7---7-7-------------|
E|-------------------------------------------------------------------------|



I was listening to katy and her band ring the tune to I kissed a girl
Then I was playing random notes and realized that it sounded like I kissed a girl
So I decided to put it here just for fun…

Play it to the tune of the chorus

      I  kissed a girl and  I   Liked I – t
e|----3---2-----------------3---2----------------------------------|
B|-------------3---0---0------------3----1-------------------------|
G|-----------------------------------------------------------------|
D|-----------------------------------------------------------------|
A|-----------------------------------------------------------------|
E|-----------------------------------------------------------------|

   The taste of her cherry chapstick
e|-------------------------------------------------------------------------|
B|--1---1----1--1----1-1-----1---0-----------------------------------------|
G|-------------------------------------------------------------------------|
D|-------------------------------------------------------------------------|
A|-------------------------------------------------------------------------|
E|-------------------------------------------------------------------------|
      I  kissed a girl just to try  I - t
e|----3---2-----------------3---2----------------------------------|
B|-------------3---0---0------------3----1-------------------------|
G|-----------------------------------------------------------------|
D|-----------------------------------------------------------------|
A|-----------------------------------------------------------------|
E|-----------------------------------------------------------------|
   I  hope   my  boyfriend don’t mind it
e|-------------------------------------------------------------------------|
B|--1---1----1----1---1-1-----1---0----------------------------------------|
G|-------------------------------------------------------------------------|
D|-------------------------------------------------------------------------|
A|-------------------------------------------------------------------------|
E|-------------------------------------------------------------------------|


It felt so  wrong  it  felt   so    right   don’t mean  im  in love to-night
e|-------------------------------------------------------------------------|
B|-------------0----------------------0---------------------0--------------|
G|--0--0---2--------0-----0-----2------------0-----0----2-------0----2---0-|
D|-------------------------------------------------------------------------|
A|-------------------------------------------------------------------------|
E|-------------------------------------------------------------------------|

    I kissed a    girl and   I    liked  I -  t         I    liked  it
e|--3----2-------------------3-----2-------------------3------2------------|
B|-----------3-----0---0-----------------3-----1------------------3--------|
G|-------------------------------------------------------------------------|
D|-------------------------------------------------------------------------|
A|-------------------------------------------------------------------------|
E|-------------------------------------------------------------------------|


        
            
Hard to play? Try these video lessons and learn fast. | Correct




comments powered by Disqus
↑ Back to top | Tablatures and chords are parodies/interpretations of the original songs. You may use it for private study, scholarship, research or language learning purposes only