» » »

Katy Perry, If You Can Afford Me Tabs (ver.1)

Artists:  A B C D E F G H I J K L M N O P Q R S T U V W X Y Z # 

If You Can Afford Me Tabs (ver.1)

Katy Perry Tabs
 Rating:
4/5 (4 votes)
If You Can Afford Me lessons Tabs too difficult? Try these video lessons and learn fast
                Katy Perry – If You Can Afford Me
Listen to the song for strumming patterns and stuff...

VERSE
e|---------------------------------------------------|
B|---------------------------------------------------|
G|--3------------------------------------------------|
D|--4---------11-------13---------9------------------|
A|--4---------11-------13---------9------------------|
E|--2---------9--------11---------7------------------|

PRE CHORUS
e|--6--------4--------2--------------------------|
B|--7--------4--------2--------------------------|
G|--8--------6--------4--------------------------|
D|--8--------6--------4--------------------------|
A|--6--------4--------2--------------------------|
E|-----------------------------------------------|

CHORUS (GUITAR 1)
e|----------------------------------|--------|
B|----------------------------------|--------|
G|-----------6----------------------|--------|
D|---4-------6-------6-------9------|--8-----|
A|---4-------4-------6-------9------|--8-----|
E|---2---------------4-------7------|--6-----|
        (------3X-------)


CHORUS (GUITAR 2) you will hear this if you are listen to the album version of the song. 
the other version you wont hear this
e|-----2----4----6-6---4--2-1-------2---4-----6-6--4--2--1-----------------|
B|--2----2---2-------------------0----0----0-------------------------------|
G|-------------------------------------------------------------------------|
D|-------------------------------------------------------------------------|
A|-------------------------------------------------------------------------|
E|-------------------------------------------------------------------------|

BRIDGE (SOLO)
e|-------------------------------------------------------------------------|
B|-11-11-11-11-11-11-11-11-9-9-9-9-9-9-9-9-6-6-6-7-7-7---------------------|
G|----------------------------------------------------6-6-4-4-4-4-4-4-4----|
D|-------------------------------------------------------------------------|
A|-------------------------------------------------------------------------|
E|-------------------------------------------------------------------------|

e|-------------------9-9-9-7-7-7-9-9-11-11-11-9-9-9-7-7-7-9-9-9-7-7-7-6-6--|
B|11-11-11-9-9-9-11-11---------------------------------------------------7-|
G|-------------------------------------------------------------------------|
D|-------------------------------------------------------------------------|
A|-------------------------------------------------------------------------|
E|-------------------------------------------------------------------------|
REPEAT CHORUS
            
Submit corrections

comments powered by Disqus
↑ Back to top | Katy Perry Tabs for If You Can Afford Me. Lyrics for acoustic guitar and electric guitar. Tablatures and chords are parodies/interpretations of the original songs. You may use it for private study, scholarship, research or language learning purposes only