» » »

Firework Tabs (ver.1)

Artists:  A B C D E F G H I J K L M N O P Q R S T U V W X Y Z # 

Firework Tabs (ver.1)

Katy Perry
Rating:
4/5 (6 votes)

Hard to play? Try these video lessons and learn fast.
                -------------------------------------------------------------------------------
-------------------------------------------------------------------------------

Capo 1

Tuning:

Intro (0:00) (G Am Em Cadd9)

e|---------00000000-------------------|
B|-0000000011111111--------33333333---|
G|-00000000222222220000000000000000---|
D|-00000000222222222222222222222222---|
A|-22222222--------2222222233333333---|
E|------------------------------------|



Verse (0:08) (G Am Em Cadd9)

e|---------00000000-------------------|
B|-0000000011111111--------33333333---|
G|-00000000222222220000000000000000---|
D|-00000000222222222222222222222222---|
A|-22222222--------2222222233333333---|
E|------------------------------------|




Pre - Chorus (0:39) (G Am Em C)

e|------------------------------------|
B|---------1-0-1-0--------------------|
G|-4-2-4-2-2x2x2x2x2-0-2-0-2-0-2-0----|
D|-0x0x0x0x2x2x2x2x2x2x2x2x2x2x2x2x---|
A|-2x2x2x2x--------2x2x2x2x3x3x3x3x---|
E|-3x3x3x3x---------------------------|



Chorus (1:10) (G Am Em C Cadd9) 

e|-3-------0-------0-------0---0------|
B|-3-------1-------0-------1---3------|
G|-0-------2-------0-------0---0------|
D|-0-------2-------2-------2---2------|
A|-2-------0-------2-------3---3------|
E|-3---------------0------------------|


Verse and Chorus are the same again

2nd Chorus riff (2:25) (G Am Em C)

e|-3-------0-------0-------0---0------|
B|-3-------1-------0-------10--10-----|
G|-0-------2-------0-------00200020---|
D|-0-------2-------2-------22222222---|
A|-2-------0-------2-------3---3------|
E|-3---------------0------------------|


Bridge (2:43) (Em C G D)


e|-0-------0-------3-------2----------|
B|-0-------1-------3-------3----------|
G|-0-------0-------0-------2----------|
D|-2-------2-------0-------0----------|
A|-2-------3-------2------------------|
E|-0---------------3------------------|



************************************

| /   slide up
| \   slide down
| h   hammer-on
| p   pull-off
| ~   vibrato
| +   harmonic
| x   Mute note
| b   Bend
| pb  Pre-bend
| br  Bend release
| pbr Pre-bend release
| brb Bend release bend

************************************
            
Hard to play? Try these video lessons and learn fast. | Correct




comments powered by Disqus
↑ Back to top | Tablatures and chords are parodies/interpretations of the original songs. You may use it for private study, scholarship, research or language learning purposes only