» » »

California Gurls Bass tabs (ver.2)

Artists:  A B C D E F G H I J K L M N O P Q R S T U V W X Y Z # 

California Gurls Bass tabs (ver.2)

Katy Perry
Rating:
0/5 (0 votes)

Hard to play? Try these video lessons and learn fast.
                -------------------------------------------------------------------------------
			     California Gurls - Katy Perry
-------------------------------------------------------------------------------


NOTE:  Should be slapped!

Tuning: GDAE

MAIN BASSLINE:

G|-------------3---------5---------7------7----------------------------------|
D|-----7---------------------------------------------------------------------|
A|-----------1---------3---------5-----5-------------------------------------|
E|---5-----------------------------------------------------------------------|

For that bit that changes its..

G|-----------------------------------------------------------------------------|
D|-----------------------------------------------------------------------------|
A|------77777777-------55555555-------8888888888888888-------------------------|
E|-----------------------------------------------------------------------------|
            
Hard to play? Try these video lessons and learn fast. | Correct




comments powered by Disqus
↑ Back to top | Tablatures and chords are parodies/interpretations of the original songs. You may use it for private study, scholarship, research or language learning purposes only