» » »

Katy Perry, California Gurls Bass tabs (ver.1)

Artists:  A B C D E F G H I J K L M N O P Q R S T U V W X Y Z # 

California Gurls Bass tabs (ver.1)

Katy Perry Tabs
 Rating:
3.6/5 (7 votes)
California Gurls lessons Tabs too difficult? Try these video lessons and learn fast
                Katy Perry ft Snoop Dogg California Gurls Bass Tab

Here is everything you will need to get through this song with a link to a vid at
the end of how its played

Intro

G|--------3---------7---7----|
D|---------------------------|
A|----0h1-----3---5---5------|
E|-5-------------------------|


Verse (same as intro just with slap and pop)  S=Slap  P=Pop

   S  S   P   S   S P S P

G|--------3---------7---7----|
D|---------------------------|
A|----0h1-----3---5---5------|
E|-5-------------------------|


1st Bridge


G|--------------------------------------|
D|--------------------------------------|
A|-33333333-55555555-11111111-11111111--|
E|--------------------------------------|


G|--------------------------------3-3---|
D|--------------------------------------|
A|-33333333-55555555-11111111-1111-1-1--|
E|--------------------------------------|

Chorus 1st part (same as verse)


   S  S   P   S   S P S P

G|--------3---------7---7----|
D|---------------------------|
A|----0h1-----3---5---5------|
E|-5-------------------------|


Chorus 2nd part

   S S  S   P S    S S  S P S P   S S S   P S   S S  S P S P

G|----------3-------------7---7-----------3------------7---7--|
D|------------1h3---------------------------3h5---------------|
A|------0h1--------3-3--5---5---------0h1-------3-3--5---5----|
E|-5-5----------------------------5-5-------------------------|


- Play verse Again

2nd Bridge

G|--------------------------------------|
D|--------------------------------------|
A|-33333333-55555555-11111111-11111111--|
E|--------------------------------------|

                             v   these are Elevens   v
G|--------------75------------------------------------|
D|----------------75----------------------------------|
A|-33333333-5555-----11111111/11-11-11-11-11-11-11-11-|
E|----------------------------------------------------|


- Play both Parts of chorus again

Snoops bit

   S  S   S    S   S P S P

G|-------------------7---7---|
D|---------------------------|
A|----0h1-1----3---5---5-----|
E|-5-------------------------|

Half way through this bit, go back and play the verse again

- Play both parts of chorus

- play 2nd part of chorus again


End with

G|------------|
D|--5~----3~--|
A|------------|
E|------------|


So yeah, very fun song to play. Chances are, you'll find your own way to play this song but

Heres a link to a video of me playing this exact tab...


If for some reason this link dosnt work when you come to look at this tab, try looking here...



Cheers

Harry
            
Submit corrections

comments powered by Disqus
↑ Back to top | Katy Perry Bass for California Gurls. Lyrics for acoustic guitar and electric guitar. Tablatures and chords are parodies/interpretations of the original songs. You may use it for private study, scholarship, research or language learning purposes only