» » »

Katri Ylander, Unta Chords (ver.1)

Artists:  A B C D E F G H I J K L M N O P Q R S T U V W X Y Z # 

Unta Chords (ver.1)

Katri Ylander Tabs
 Rating:
4/5 (4 votes)
Unta lessons Tabs too difficult? Try these video lessons and learn fast
1
                -------------------------------------------------------------------------
UNTA – Katri Ylander
-------------------------------------------------------------------------


Ylander is a Finnish singer who became known after placing second in 
Idols Finland (season 2), the Finnish version of Pop Idol.

Standard tuning

Am      = x02210  Fmaj7   = 133210  G  = 320003  F      = 133211
Fmaj7/A = x03210  Fmaj#11 = 133200  Dm = xx0231  Bbsus2 = 013311
Dsus2   = xx0230  Asus2   = x02200  C  = x32010  Dsus4  = xx0233

INTRO
  Am      Fmaj7/A  Dsus2   Am     Fmaj7/A  Dsus2   Am     Fmaj7/A  Dsus2
e|---7--------0--------0-----7--------0--------0-----7--------0---------|
B|-----5--------1--------------5--------1--------------5--------1-------|
G|-------5-----------2-----------5-----------2-----------5------------2-|
D|-7--------3------0-------7--------3------0-------7--------3-------0---|
A|----------------------------------------------------------------------|
E|----------------------------------------------------------------------|
       Am     Fmaj7/A  Dsus2  Am
e|-0-----7--------0------0----0-----------------------------------------|
B|---------5--------1----3----1-----------------------------------------|
G|-----------5-----------2----2-----------------------------------------|
D|-----7--------3--------0----2-----------------------------------------|
A|----------------------------0-----------------------------------------|
E|----------------------------------------------------------------------|

VERSE1
Am    Fmaj7/A   Dsus2
Autojen valoja, oksien varjoja
Am  Fmaj7/A  Dsus2
  yön viivoja
Am   Fmaj7/A   Dsus2
ikkunaruutuja, askelten kaikuja
Am  Fmaj7/A Dsus2 Am
  mä lasken yh...teen

PRE-CHORUS
Fmaj7  Fmaj#11 Fmaj7  Fmaj#11
Ootan...unta...ilman...sua

VERSE2
Am     Fmaj7/A     Dsus2
Ilkeistä sanoista, turhista viilloista
Am   Fmaj7/A Dsus2
   mä listan teen
Am     Fmaj7/A  Dsus2
vuosien vikoja, huonoja aikoja
Am  Fmaj7/A  Dsus2 Am
   mä lasken yh...teen

PRE-CHORUS
Fmaj7   Fmaj#11 Fmaj7  Fmaj#11
Saatko...unta...ilman...mua

CHORUS
Am  Asus2 Fmaj7
Jos tuut  viereen
G        Dm           Am Asus2
painoton oon ja osaan lentää
Fmaj7    G           Dm           Am
hiljaa   hengitän ja viimein nukahdan

VERSE3 (same chords)
Uusia kasvoja, vanhoja leimoja
työmatkoja
Vieraita huoneita, tuttuja tunteita
mä lasken yhteen

PRE-CHORUS (same chords)
Ootan unta ilman sua

CHORUS
Am  Asus2 Fmaj7
Jos tuut  viereen
G        Dm           Am Asus2
painoton oon ja osaan lentää
Fmaj7    Dm          Bbsus2
hiljaa   hengitän ja viimein nukahdan

INTERLUDE
Bbsus2  C  F  Dm
Bbsus2  C  Dsus4-D-Dsus2-D

VERSE4 (same as before)
Muistion sivuista, turhista tunneista
teen sytykkeen
nukkuvat kohtalot, toistemme vartalot
mä poltan yhteen

PRE-CHORUS (same as before)
Saatko unta ilman mua

CHORUS x2
======================================================================
            
Submit corrections

comments powered by Disqus
↑ Back to top | Katri Ylander Chords for Unta. Lyrics for acoustic guitar and electric guitar. 1 Tablatures and chords are parodies/interpretations of the original songs. You may use it for private study, scholarship, research or language learning purposes only