>
 >
Rakkaus Ei Rapistu

Rakkaus Ei Rapistu Guitar Tabs

Katri Ylander - Rakkaus Ei Rapistu chords, tabs, tablatures, lyrics

Guitar lessons | Add/correct | Request | Top 50 tabs Artists:  A B C D E F G H I J K L M N O P Q R S T U V W X Y Z 0-9

Rakkaus Ei Rapistu Guitar Tabs – Katri Ylander

CD, Sheet music, Poster

Do you like Rakkaus Ei Rapistu? Share with your friends now
Tabs
-------------------------------------------------------------------------
RAKKAUS EI RAPISTU – Katri Ylander
-------------------------------------------------------------------------

Standard tuning
Capo on second fret!

INTRO>>
   Am        G       F/C                    Am      G         F
e|----------------------------------------------------------------------|
B|-----1---------0-------1-1-------1------------1-------0---------1-1---|
G|-----------------0------------------------------2---------0-----2-2---|
D|---2-----2---0-------3-----3-2h3---3-3p2----2-------0---0-------------|
A|-0-----0-----------3----------------------0-------------------3-------|
E|-----------3--------------------------------------3---------1---------|
           VERSE1>>
             Am        G         F/C                    Am        G
e|---------|------------------------------------------------------------|
B|---1-----|-----1---------0---------1-1-------1------------1-----------|
G|---2-----|-------------------0--------------------------------------0-|
D|-------3-|---2-----2---0---0-----3-----3-2h3---3-3p2----2-----2---0---|
A|---------|-0-----0-------------3----------------------0-----0---------|
E|-1---1---|-----------3------------------------------------------3-----|
       F                  Am        G         F/C                    Am
e|----------------------------------------------------------------------|
B|---------1-1---1------------1-------------------1-1-------1-----------|
G|--------------------------------------0-------------------------------|
D|---3-------------3---3----2-----2---0-----3---3-----3-2h3---3-3p2-----|
A|-------3-----3----------0-----0-------------3----------------------0--|
E|-3---1-------------3--------------3-----3-----------------------------|
           G         F/C
e|-----------------------------------------|
B|---1-------------------1-1-------1-------|
G|-------------0---------------------------|
D|-2-----2---0-----3---3-----3-2h3---3-3p2-|
A|-----0-------------3---------------------|
E|---------3-----3-------------------------|

VERSE1
Am                G                F/C
   Sinä kuuntelit hiljaa, kun minä valitin
Am                   G                 F
   Kuinka maailma on synkkä ja pilvet painaa
Am                G                  F/C
   Kuinka itseeni petyin ja haaveeni alitin
Am               G                F/C
   Iholleni sinä puhalsit viileää ilmaa

CHORUS
   C        G        Am       F/C          C        G        F
e|----------------------------------------------------------------------|
B|-----1--------0--------1--------1------------1--------0--------1---1--|
G|-------0--------0--------2--------2------------0--------0-------------|
D|---2--------0--------2--------3-------3----2--------0-----------------|
A|-3-----------------0--------3-------3----3-------------------3--------|
E|----------3---------------------------------------3--------1-----1----|
              C         G         Am        F/C         C         G
e|----------------------------------------------------------------------|
B|---1------------1---------0---------1---------1-----------1---------0-|
G|--------------------0---------0---------2-------2-------------0-------|
D|-----3---3----2---2-----0---0-----2---2-----3-------3---2---2-----0---|
A|------------3-------------------0---------3-------3---3---------------|
E|-1-----1--------------3-----------------------------------------3-----|
        F
e|---------------------------|
B|----------1-------1--------|
G|---0-----------------------|
D|-0------------2h3---3-3p2--|
A|--------3---3--------------|
E|------1--------------------|

CHORUS
C          G          Am          F/C
  Ei uppoa usko, eikä toivo tuhoudu
           C
Rakkaus ei rapistu
      G                F
Se on meillä tässä ja aina
C          G          Am          F/C
  Ei uppoa usko, eikä toivo tuhoudu
           C
Rakkaus ei rapistu
      G                F
Se on meillä tässä ja aina

INTERLUDE
   Am        G       F/C
e|------------------------------------------|
B|-----1--------------------1------1--------|
G|---------2-----0--------------------------|
D|---2---------0-----3----3----2h3---3-3p2--|
A|-0-----0--------------3-------------------|
E|-----------3-----3------------------------|

VERSE2
   Am        G         F                  Am        G          F/C     
e|----------------------------------------------------------------------|
B|-----1-------------------1-----1------------1--------------------1----|
G|---------------0--------------------------------------0---------------|
D|---2-----2---0-----3-------3-----3---3----2-----2---0-----3----3---3--|
A|-0-----0---------------3----------------0-----0--------------3--------|
E|-----------3-----3---1-------1-----3--------------3-----3-------------|

                Dm7       C         Am        F
e|---------|   ---------------------------------------------|
B|---1-----|   ---------------1---------1---------1---------|
G|---------|   -----5-------0-----0---2-----2---------------|
D|-----3---|x2 ---3-----3---------------------------3---3---|
A|-3-----3-|   -5-----5---3-----3---0-----0-----3-----------|
E|---------|   -------------------------------1-------3-----|

VERSE2
Am              G             F
   Ikkunassamme autojen valot leikkii
Am                 G               F/C
   "Nukutaan kulta nyt", sinä hiljaa kuiskaat
Am                G              F
   Minä nuku en vielä, mielessä hiipii
Am                  G                     F/C
   Minä muistan sen taas, että maailma on kaunis
                Dm7   C            Am     F
Että maailma on kaunis, maailma on kaunis


CHORUS
C          G          Am          F/C
  Ei uppoa usko, eikä toivo tuhoudu
           C
Rakkaus ei rapistu
      G                F
Se on meillä tässä ja aina
C          G          Am          F/C
  Ei uppoa usko, eikä toivo tuhoudu
           C
Rakkaus ei rapistu
      G               G#
Se on meillä tässä ja nyt...

INTERLUDE/SOLO
...C  G#  C  G#  C5-Gadd4/B-Am7-Gsus4              F
                              Hmmmm, ja maailma on kaunis

CHORUS                                                      C5 = x3x01x
C          G          Am          F/C                  Gadd4/B = x2x01x
  Ei uppoa usko, eikä toivo tuhoudu                        Am7 = x0x01x
           C                                             Gsus4 = 3xx01x
Rakkaus ei rapistu
      G               F               C
Se on meillä tässä ja aina, ohoh-ohoh-ooh
         G          Am          F/C
Ei uppoa usko, eikä toivo tuhoudu
           C
Rakkaus ei rapistu
      G               F            C
Se on meillä tässä ja aina, hee-heei
        G/B         Am          F/C
Ei uppoa usko, eikä toivo tuhoudu
           C
Rakkaus ei rapistu
      G               F               C
Se on meillä tässä ja aina, uuh-uh-uh-uuh
         G          Am          F/C
Ei uppoa usko, eikä toivo tuhoudu
           C
Rakkaus ei rapistu
      G               F       Am
Se on meillä tässä ja aina.

=========================================================================





Comments


Popular Katri Ylander tabs & chords
En Koskaan Chords
Paperilyhtyja Chords
Unta Chords
Valitunnilla Chords
Valitunnilla 1 Chords
Valvojat Chords
En Koskaan Ukulele
Mansikkamaki Ukulele
Paperilyhtyja Ukulele
Valvojat Ukulele


Song lyrics



↑ Back to top | Tablatures and chords are parodies/interpretations of the original songs. You may use it for private study, scholarship, research or language learning purposes only
© 2014 AZChords.com Contact us | Privacy policy | DMCA | Add/correct tabs | Request tabs | Top 50 tabs