» » »

Shy Boy Bass tabs (ver.1)

Artists:  A B C D E F G H I J K L M N O P Q R S T U V W X Y Z # 

Shy Boy Bass tabs (ver.1)

Katie Melua
Rating:
5/5 (1 vote)

Hard to play? Try these video lessons and learn fast.
                Katie Melua
Piece By Piece 2005


INTRO
G|---------------|-------------|
D|----------5-7--|-------5-5---|
A|-----7--7------|-----7-----7-|
E|-5-------------|-5-----------|


G|---------------|-------------|
D|----------5-7--|-------5-5---|
A|-----7--7------|-----7-----7-|
E|-5-------------|-5-----------|

   Am7
G|---------------|-------------|
D|----------5-7--|-------5-5---|
A|-----7--7------|-----7-----7-|
E|-5-------------|-5-----------|


G|---------------|-------------|
D|----------5-7--|-------5-5---|
A|-----7--7------|-----7-----7-|
E|-5-------------|-5-----------|


G|---------------|-------------|
D|----------5-7--|-------5-5---|
A|-----7--7------|-----7-----7-|
E|-5-------------|-5-----------|


G|---------------|------------|
D|----------5-7--|--------5-5-|
A|-----7--7------|-----7------|
E|-5-------------|-5----------|

VERSE
   C7#9
G|----------3----|-------3-3-----|
D|-----5--5---5--|-----5-----2-5-|
A|-3-------------|-3-------------|
E|---------------|---------------|

   Am7
G|---------------|--------------|
D|----------5-7--|--------5-5---|
A|-----7--7------|-----7------7-|
E|-5-------------|-5------------|etc
            
Hard to play? Try these video lessons and learn fast. | Correct




comments powered by Disqus
↑ Back to top | Tablatures and chords are parodies/interpretations of the original songs. You may use it for private study, scholarship, research or language learning purposes only