>
 >
Just Like Heaven

Just Like Heaven Guitar Tabs

Katie Melua - Just Like Heaven chords, tabs, tablatures, lyrics

Guitar lessons | Add/correct | Request | Top 50 tabs Artists:  A B C D E F G H I J K L M N O P Q R S T U V W X Y Z 0-9

Just Like Heaven Guitar Tabs – Katie Melua

CD, Sheet music, Poster

Do you like Just Like Heaven? Share with your friends now
ChordsTabsUkulele
Played in: Standard tuning


Basically there are 2 guitars on this song, one is doing some plucking and the other
is playing the solos. In this tab, Guitar 1 is representing the plucking and Guitar 2
represents the solo.

This tab is not 100% complete, it's almost IMPOSSIBLE to tab EVERY single part of the
song. But if you wanna learn this song, this tab should keep you busy for a while.


[0:00-1:42]
Guitar 1
 	A 	       E	    Bm		   D
e|-----------------------------------------------2----2--------|
B|-----2----2--------0----0--------3----3-------3------3-------|
G|----2------2------1------1------4------4-----2----2----------|
D|---2----2--------2----2--------4----4-------0----0-----------|
A|--0----0--------2----2--------2----2-------------------------|
E|-------------------------------------------------------------|


[0:07-0:15]
Guitar 2
e|-------------------------------------------------------------|
B|--14-14-14-12-10--9-9-9-7-5--3-0h2-3--5-3-2-0-2-3-2-0--------|
G|------------------------------------------------------2------|
D|-------------------------------------------------------------|
A|-------------------------------------------------------------|
E|-------------------------------------------------------------|


[0:15-0:24]
e|---------------------------12-12-----------------------------|
B|--3h5-----12h14p12-12-10-9-------10~---12-14-15-14-10--------|
G|------1~-----------------------------9----------------9~-----|
D|-------------------------------------------------------------|
A|-------------------------------------------------------------|
E|-------------------------------------------------------------|


[0:24-0:30]
e|-------------------------------------------------------------|
B|--10-9-7-5-3-2h3p2-0----3p2p0-0h2p0-2-0----------------------|
G|---------------------2------------------2-1------------------|
D|-------------------------------------------------------------|
A|-------------------------------------------------------------|
E|-------------------------------------------------------------|


[0:59-1:06]
Guitar 2
e|-------------------------------------------------------------|
B|--14-14-14-12-10--9-9-9-7-5--3-0h2-3--5-3-2-0-2-3-2-0--------|
G|-------------------------------------------------------------|
D|-------------------------------------------------------------|
A|-------------------------------------------------------------|
E|-------------------------------------------------------------|


[1:06-1:13]
e|-------------------------------------------------------------|
B|--15-14-12-14-15-17-10h12--10h12p10-9---7-7~--5-3-2-0--------|
G|--------------------------------------9---------------2~-----|
D|-------------------------------------------------------------|
A|-------------------------------------------------------------|
E|-------------------------------------------------------------|


[1:16-1:28]
e|-----------------------------------------------------|
B|--14-12-10~--12-14-15-12-14~--15p14-12-10-9-7-5------|
G|-----------------------------------------------------|
D|-----------------------------------------------------|
A|-----------------------------------------------------|
E|-----------------------------------------------------|


[1:37-1:42]
There's a small part here but I can't catch it.


[1:43-1:51]
Guitar 1
	F#
e|-----------------------------------------------------|
B|-----------------------------------------------------|
G|-------1----1----------------------------------------|
D|------4------4---------------------------------------|
A|-----4----4------------------------------------------|
E|----2----2-------------------------------------------|

Guitar 2
e|-----------------------------------------------------|
B|---2~--3-3-3-5-2~--3-3-3-5-2~------------------------|
G|--2--------------------------------------------------|
D|-----------------------------------------------------|
A|-----------------------------------------------------|
E|-----------------------------------------------------|


[1:54-2:00]
Can't get Guitar 1 for this.


[2:00-2:03]
Guitar 2
e|-----------------------------------------------------|
B|--17-15-14-12-12h14h15-14-10-14-15-17h19-10h12-------|
G|-----------------------------------------------------|
D|-----------------------------------------------------|
A|-----------------------------------------------------|
E|-----------------------------------------------------|


[2:00-3:00]
Guitar 1
 	A 	       E	    Bm		   D
e|-----------------------------------------------2----2--------|
B|-----2----2--------0----0--------3----3-------3------3-------|
G|----2------2------1------1------4------4-----2----2----------|
D|---2----2--------2----2--------4----4-------0----0-----------|
A|--0----0--------2----2--------2----2-------------------------|
E|-------------------------------------------------------------|


[2:05-2:08]
Another part I can't catch.


[2:08-2:14]
Guitar 2
e|-----------------------------------------------------|
B|--14-14-14-12-12-10--9-9-9-7-7-5--3-0h2-3--???-------|
G|-----------------------------------------------------|
D|-----------------------------------------------------|
A|-----------------------------------------------------|
E|-----------------------------------------------------|

[2:15-2:20]
e|-----------------------------------------------------|
B|--2-2-3-3-5-7-7-9-9-10--12-14-15---------------------|
G|---------------------------------7-------------------|
D|-----------------------------------------------------|
A|-----------------------------------------------------|
E|-----------------------------------------------------|

[2:21-2:24]
e|-----------------------------------------------------|
B|--2h3p2-0-2-3-3-2-0----------------------------------|
G|--------------------2-4-6-6-6------------------------|
D|-----------------------------------------------------|
A|-----------------------------------------------------|
E|-----------------------------------------------------|

[2:25-2:30]
e|-------------------------------------------------------------|
B|--7h9-10-9--7-5-7-9-10-3--???---17-15-14-12-10-17-17-17~-----|
G|-------------------------------------------------------------|
D|-------------------------------------------------------------|
A|-------------------------------------------------------------|
E|-------------------------------------------------------------|


Ok if you've been practising you should know the rest by now. I'll try to make this tab
more complete in the future. Send comments/corrections to my e-mail. Oh, and please rate
after trying out my tab.





Comments


Popular Katie Melua tabs & chords
Call Off The Search Chords
I Cried For You Chords
I'd Love To Kill You Chords
If You Were A Sailboat 1 Chords
Lucy In The Sky With Diamonds Chords
Red Balloons Chords
Secret Symphony Chords
The One I Love Is Gone Chords
Idiot School Ukulele
Toy Collection Ukulele


Song lyrics



↑ Back to top | Tablatures and chords are parodies/interpretations of the original songs. You may use it for private study, scholarship, research or language learning purposes only
© 2014 AZChords.com Contact us | Privacy policy | DMCA | Add/correct tabs | Request tabs | Top 50 tabs