» » »

Holding Us Back Tabs (ver.2)

Artists:  A B C D E F G H I J K L M N O P Q R S T U V W X Y Z # 

Holding Us Back Tabs (ver.2)

Katie Herzig
Rating:
0/5 (0 votes)

Hard to play? Try these video lessons and learn fast.
                (Intro)
Holding us Back by Katie Herzig

This is the first time trying to learn a song by ear so i kind of need help. I managed 
somewhat get the intro.

Standard tuning
Capo on 5th fret(don't need the capo just easier to tab)

intro
e|-------------------------------------------------------------------------|
B|-------------------------------------------------------------------------|
G|-----2-----2-----2-----2-----2-----2-----2-----2-------------------------|
D|---3---3-3---3-3---3-3---3-2---2-2---2-2---2-2---2-----------------------|
A|-------------------------------------------------------------------------|
E|-------------------------------------------------------------------------|

e|-------------------------------------------------------------------|
B|-------------------------------------------------------------------|
G|-----2-----2-----2-----2------2-----2-----2-----2------------------|
D|---0---0-0---0--------------3---3-3---3-3---3-3---3----------------|
A|---------------3---3-3---3-----------------------------------------|
E|-------------------------------------------------------------------|


e|---------------------------------------|
B|---------------------------------------|
G|-----2-----2-----2-----2---------------|
D|---3---3-3---3-3---3-3---3-------------|
A|---------------------------------------|
E|---------------------------------------|


this is just a rough draft of what i managed to pull out.
please help, and maybe help with the chorus.

this part doesn't sound correct though
e|------------------------------------|
B|------------------------------------|
G|-----2-----2-----2-----2------------|
D|---2---2-2---2-2---2-2---2----------|
A|------------------------------------|
E|------------------------------------|
            
Hard to play? Try these video lessons and learn fast. | Correct




comments powered by Disqus
↑ Back to top | Tablatures and chords are parodies/interpretations of the original songs. You may use it for private study, scholarship, research or language learning purposes only