» » »

Katie Herzig, Holding Us Back Tabs (ver.1)

Artists:  A B C D E F G H I J K L M N O P Q R S T U V W X Y Z # 

Holding Us Back Tabs (ver.1)

Katie Herzig Tabs
 Rating:
4/5 (5 votes)
Holding Us Back lessons Tabs too difficult? Try these video lessons and learn fast
1
                Capo on 5th fret.
I don't think it's a 100% correct but it might be a good start =))  help and comment in 
order to make it sound better!!

Intro + verse

e|--------------------------------------------------------------------------|
B|---1-----1-----1-----1-----1-----1-----1-----1-----1-----1-----1-----1----|
G|---2-----2-----2-----2-----2-----2-----2-----2-----2-----2-----2-----2----|
D|-3---3-3---3-3---3-3---3-0---0-0---0-0---0-0---0-------------------2---2--|
A|-------------------------------------------------1---1-1---1-3---3--------|
E|--------------------------------------------------------------------------|
                           [ maybe I love you, maybe I ...
e|-------------------------|--------------------------------------------------|
B|---1-----1-----1-----1------1-----1-----1-----1-----1-----1-----1-----1-----|
G|---2-----2-----2-----2------2-----2-----2-----2-----2-----2-----2-----2-----|
D|-3---3-3---3-3---3-3---3--3---3-3---3-3---3-3---3-0---0-0---0-0---0-0---0---|
A|----------------------------------------------------------------------------|
E|----------------------------------------------------------------------------|


e|--------------------------|
B|---1-----1-----1-----1----|
G|---2-----2-----2-----2----|
D|-------------------2---2--| (2X)
A|-1---1-1---1-3---3--------|
E|--------------------------|

CHORUS


e|--------------------------------------------------------------------------|
B|---1-----1-----1-----1-----1-----1-----1-----1-----1-----1-----1-----1----|
G|---2-----2-----2-----2-----2-----2-----2-----2-----2-----2-----2-----2----|
D|-------------------------3---3-3---3-0---0-0---0--------------------------|
A|-1---1-1---1-3---3-3---3-------------------------1---1-1---1-3---3-3---3--|
E|--------------------------------------------------------------------------|

e|------------------------------------|
B|---1-----1-----1-----1-----1-----1--|
G|---2-----2-----2-----2-----2-----2--|
D|-------------3---3-3---3-3---3-3---3|
A|-3---3-3---3------------------------|
E|------------------------------------|


                            [ we'll never know...
e|-------------------------|--------------------------------------------------|
B|---1-----1-----1-----1------1-----1-----1-----1-----1-----1-----1-----1-----|
G|---2-----2-----2-----2------2-----2-----2-----2-----2-----2-----2-----2-----|
D|-3---3-3---3-3---3-3---3--3---3-3---3-3---3-3---3-0---0-0---0-0---0-0---0---|
A|----------------------------------------------------------------------------|
E|----------------------------------------------------------------------------|


e|--------------------------|
B|---1-----1-----1-----1----|
G|---2-----2-----2-----2----|
D|-------------------2---2--| (2X)
A|-1---1-1---1-3---3--------|
E|--------------------------|

CHORUS (X5)

e|-------------------------------------------------|
B|---1-----1-----1-----1-----1-----1-----1-----1---|
G|---2-----2-----2-----2-----2-----2-----2-----2---|
D|-------------------------3---3-3---3-0---0-0---0-|
A|-1---1-1---1-3---3-3---3-------------------------|
E|-------------------------------------------------|

ENDING

e|---------------------------------------------------|
B|---1-----1-----1-----1------1-----1-----1-----1----|
G|---2-----2-----2-----2------2-----2-----2-----2----|
D|-3---3-3---3-3---3-3---3-3---3-3---3-3---3-3---3-3-|
A|---------------------------------------------------|
E|---------------------------------------------------|

The beginning of the chorus sounds different but I couldn't get it right but... Enjoy 
this amazing song anyway :))
            
Submit corrections

comments powered by Disqus
↑ Back to top | Katie Herzig Tabs for Holding Us Back. Lyrics for acoustic guitar and electric guitar. 1 Tablatures and chords are parodies/interpretations of the original songs. You may use it for private study, scholarship, research or language learning purposes only