» » »

I Can Only Imagine Bass tabs (ver.1)

Artists:  A B C D E F G H I J K L M N O P Q R S T U V W X Y Z # 

I Can Only Imagine Bass tabs (ver.1)

Kathryn Scott
Rating:
0/5 (0 votes)

Hard to play? Try these video lessons and learn fast.
                Kathryn Scott

Bass Tab; do fingerpicking as fast as you can

Tuning: Standard EADGBe


Intro:
G|-----9-------9---9------9----9h10p9----9-|
D|--------------------------10--------10---|
A|-------10-10---------10------------------|
E|-8-8-----------8---8---------------------|
then
G|-----9-------9---9------9----9h10p9----12-|
D|--------------------------10--------10----|
A|-------10-10---------10-------------------|
E|-8-8-----------8---8----------------------|
then
G|-----9-------9---9------9----9h10p9----9-|
D|--------------------------10--------10---|
A|-------10-10---------10------------------| (x2)
E|-8-8-----------8---8---------------------|


Verses: x2
G|-----9-------9---9------9----9h10p9----9-|
D|--------------------------10--------10---|
A|-------10-10---------10------------------| (x2)
E|-8-8-----------8---8---------------------|
then
G|-----9------9---9------9----9h10p9----12-|
D|--------------------10---10--------10----|
A|-8-8----8-8---8---8----------------------|(x2)
E|-----------------------------------------|


Chorus 1:
G|-----------------------------------------------14\12-9/10-|
D|--------7h9~---9-9/10---10-10/12---12-12/14---------------|
A|-8~---8---------------------------------------------------|
E|----------------------------------------------------------|
then
G|-----------|
D|-----------|
A|------2~---|
E|-1~--------|


Interlude:
G|-----9-------9---9------9----9h10p9----9-|
D|--------------------------10--------10---|
A|-------10-10---------10------------------| (x2)
E|-8-8-----------8---8---------------------|


Chorus 2:
G|-----------------------------------------------------------4---4-4--4--|
D|--------------------------------------------2/5-3---3-3--5-------------|
A|------------2---2-2--2-3---3-3--3--3-3-3-3-----------------------------|
E|-1---1-1--3------------------------------------------------------------|
then
G|-5-5-5-5-4-4-4-4-2-2-2-2-0-0-0-----------------------------5-----5-----|
D|-------------------------------2-3-3-3-3~------------------------------|
A|--------------------------------------------2-2-2~------3-----3----3-3-|
E|-----------------------------------------------------------------------|


Interlude 2: C modulating to D
G|-------------------------2-2-2-2-0-0-0-0~---2-2-2-2--2/6-|
D|---------------------------------------------------------|
A|-5-5-5-5-4-4-4-4-2-2-2-2---------------------------------|
E|---------------------------------------------------------|
then
G|-------------------------2-2-2-2-|
D|---------------------------------|
A|-5-5-5-5-4-4-4-4-2-2-2-2---------|
E|---------------------------------|


Chorus 3:
G|-----------------------------------------------------------6---6-6--6--|
D|--------------------------------------------4/7-5---5-5--7-------------|
A|------------4---4-4--4-5---5-5--5--5-5-5-5-----------------------------|
E|-3---3-3--5------------------------------------------------------------|
then
G|-7-7-7-7-6-6-6-6-4-4-4-4-2-2-2--------------------------7~---6~---4~------|
D|-------------------------------4-5-5-5-5~------------------------------7~-|
A|--------------------------------------------4-4-4~------------------------|
E|--------------------------------------------------------------------------|
then
G|----------6~---6-7~---6~---4~--------12~---14~-|
D|-4/5~---5-----------------------7~-------------|
A|-----------------------------------------------|
E|-----------------------------------------------|
then
G|---------12~---14~---12~---11~---12~---11~---12~---11~---12~---11~---|
B|-12~-----------------------------------------------------------------|
D|---------------------------------------------------------------------|
A|---------------------------------------------------------------------|
            
Hard to play? Try these video lessons and learn fast. | Correct




comments powered by Disqus
↑ Back to top | Tablatures and chords are parodies/interpretations of the original songs. You may use it for private study, scholarship, research or language learning purposes only