» » »

Kathryn Scott, Creator King Bass tabs (ver.1)

Artists:  A B C D E F G H I J K L M N O P Q R S T U V W X Y Z # 

Creator King Bass tabs (ver.1)

Kathryn Scott Tabs
 Rating:
4/5 (4 votes)
Creator King lessons Tabs too difficult? Try these video lessons and learn fast
                

This is just a very basic bass tab of the song Creator King...

Tuning: E A D

Intro:

D|-------------------------|
A|----3-------3------------|
E|-------1-------3--1------| 
                                (x2)

Verse 1:

D|-----------------------------------------------|
A|----3---------3---------3---------3------------|
E|---------1---------1---------1-------3--1------|


D|-----------------------------------------------|
A|----5----3---------5----5----3----------5------|
E|--------------3-------------------3------------|


D|-------------------|
A|----------3--------|
E|----1--3-----------|


D|---------------------------------------------|
A|----3---------3-----------3---------3--------|
E|---------1-------3--1----------1-------3--1--|


Verse 2:

D|-----------------------------------------------|
A|----3---------3---------3---------3------------|
E|---------1---------1---------1-------3--1------|


D|------------------------------------------------------------------|
A|----5--5----3--3------------5--5----5--5----3--3------------5--5--|
E|--------------------3--3----------------------------3--3----------|


D|---------------------------------------|
A|----------------------3-3-3-3-3-3-3-3--|
E|----1-1-1-1--3-3-3-3-------------------|


Chorus: 

D|------------------------------------------2-----------------------|
A|------------------3-3-3-3----------5--5---------------------------|
E|--5-5-5-5-1-1-1-1---------3-3-3-3------------1--1---1-1-1-1-------|


D|------------------------------------------2----------|
A|------------------3-3-3-3----------5--5--------------|
E|--5-5-5-5-1-1-1-1---------3-3-3-3------------1----1--|


D|-------------------------------|
A|----3--3---------3-------------|
E|----------1--1------3--1-------| 
                                (x2)


Verse 3:

D|-----------------------------------|
A|----3--3--3-----3--3--3------------|
E|-------------------------3--1---1--|


D|-----------------------------------------------------------|
A|----5--5---3--3----------5--5---5--5---3--3----------5--5--|
E|------------------3--3------------------------3--3---------|


Outro:

D|----------------------------------------------------------------------|
A|----3--3---------3--3--------3--------------3--3--------3-------------|
E|----------1--1---------1--1-----3--1----1---------1--1-----3--1----1--|

                                                                    (x2)
D|---------------------|
A|-----------------3---|
E|----5---3---1--------|




===============================================================================
            
Submit corrections

comments powered by Disqus
↑ Back to top | Kathryn Scott Bass for Creator King. Lyrics for acoustic guitar and electric guitar. Tablatures and chords are parodies/interpretations of the original songs. You may use it for private study, scholarship, research or language learning purposes only