» » »

Kate Walsh, Your Song Tabs (ver.1)

Artists:  A B C D E F G H I J K L M N O P Q R S T U V W X Y Z # 

Your Song Tabs (ver.1)

Kate Walsh Tabs
 Rating:
4/5 (6 votes)
Your Song lessons Tabs too difficult? Try these video lessons and learn fast
                Capo on the 5th Fret

>=Hammer On

Intro
E------------------------------------------------------------------------|
B--0>3------------0>3----------------------------------------------------|
G-------0---2>0-----------------------------------------------X2---------|
D------------------------------------------------------------------------|
A------------------------------------------------------------------------|
E--3----3---------3------------------------------------------------------|

E------------------------------------------------------------------------|
B--0>3-----------0>3-----------------------------------------------------|
G-------0--2>0---------0--2--0-------------------------------------------|
D------------------------------------------------------------------------|
A------------------------------------------------------------------------|
E--3----3--------3-------------------------------------------------------|

E------------------------------------------------------------------------|
B--0----------------0----------------------------------------------------|
G-------2--2----0------2--2---0------------------------------------------|
D---------------2--------------------------------------------------------|
A--3-------3--------3-----3----------------------------------------------|
E------------------------------------------------------------------------|


E------------------------------------------------------------------------|
B--0------------0-----------------------3>0------------------------------|
G-----0------------0-----------0--2--0-------0--2--0--2>0----------------|
D-------4---2--------4--2--4-------------------------------2--5----------|
A--3------------3--------------------------------------------------------|
E------------------------------------------------------------------------|

Chorus
E------------------------------------------------------------------------|
B--3--------0------------------------------------------------------------|
G-------5--------2---0---------------------------------------------------|
D----------------0-------------------------------------------------------|
A-----------3------------------------------------------------------------|
E--3----3----------------------------------------------------------------|
            
Submit corrections

comments powered by Disqus
↑ Back to top | Kate Walsh Tabs for Your Song. Lyrics for acoustic guitar and electric guitar. Tablatures and chords are parodies/interpretations of the original songs. You may use it for private study, scholarship, research or language learning purposes only