» » »

Kate Walsh, It's Never Over Tabs (ver.1)

Artists:  A B C D E F G H I J K L M N O P Q R S T U V W X Y Z # 

It's Never Over Tabs (ver.1)

Kate Walsh Tabs
Rating:
0/5 (0 votes)
It's Never Over lessons Tabs too difficult? Try these video lessons and learn fast
                I'm not really the best at figuring out songs etc but i figured why not so i thought id 
it a go..

So this is an acoustic version of Kate Walsh - It's Never Over, a great song, mainly 
but a bit of guitar in there too...

You can do your own strumming pattern etc and this probably isnt exactly correct so just 
it your own and enjoy :)

oh and sorry for going on a bit=/

|/ - slideee
|p - pull offff
|h - hammer onnn
|~ - let it ringggg
|x - muted stringgggg
|(strummed) - have a guess.

Intro -

e|------------------0~---------------------------------------------------|
B|------5-3-5-0-3~--3~--7-5-3-0~--1~--8-7-3-8h7-3~-----------------------|
G|--0~--------------2~------------0~----------------2~--0~---------------|
D|--2~--------------0~------------2~----------------3~--2~---------------|
A|--2~----------------------------3~----------------3~--2~---------------|
E|--0~----------------------------------------------1~--0~---------------|


Verse -

e|------------------0~---------------------------------------------------|
B|------------------3~------------1~--8-7-3-8p7-3~-----------------------|
G|--0~--------------2~------------0~----------------2~--0~---------------|
D|--2~--------------0~------------2~----------------3~--2~---------------|
A|--2~----------------------------3~----------------3~--2~---------------|
E|--0~----------------------------------------------1~--0~---------------|


Prechorus -

e|-----------------------------------------------------------------------|
B|--8---------------------------8----------------------------------------|
G|--x-(strummed)--7-------------x-(strummed)--7------------7-7-x-7-7-x---|
D|--5-------------x-(strummed)--5-------------x-(strummed)-x-x-x-x-x-x---|
A|----------------5---------------------------5------------5-5-x-5-5-x---|
E|-----------------------------------------------------------------------|


Chorus -

e|-----------------0-----------------------------------------------------|
B|-----------------3--------------1--8-7-3-8p7-3~------------------------|
G|--0--------------2--------------0----------------2---2-0---------------|
D|--2--------------0---2h4p2/9~---2----------------3---3-2---------------|
A|--2-----------------------------3----------------3---3-2---------------|
E|--0----------------------------------------------1---1-0---------------|
(strum however you like - you are the one playing it!)

Verse again..

Chorus chords repeat until end.. Fading out..

That's about it.. I don't claim this is perfect because it probably isnt..

This is just how i play it, feel free to do whatever you likee with it.

Thank you for reading, enjoy :)

511x
            

comments powered by Disqus
↑ Back to top | Kate Walsh Tabs for It's Never Over. Lyrics for acoustic guitar and electric guitar. Tablatures and chords are parodies/interpretations of the original songs. You may use it for private study, scholarship, research or language learning purposes only