» » »

Say Youre Mine Tabs (ver.1)

Artists:  A B C D E F G H I J K L M N O P Q R S T U V W X Y Z # 

Say Youre Mine Tabs (ver.1)

Kate Voegele
Rating:
0/5 (0 votes)

Hard to play? Try these video lessons and learn fast.
                This song has two parts. This is Kate's part as best as I can figure from playing around 
and watching live.

Chords used:

A, F#m, Em, A2(open only used in chorus), C#sus 2 (labelled C#), Bm (chord chart at 
bottom of page)

Intro and verse: This is played throughout the song. the note in the bracket is an 
accent note that can be hit (I believe it might be what the second guitar is actually 
playing, but it's hard to tell)

e-----------------------------|
B-------------------------°---|
G-----------(4)---------------|
D--(9)-(9)-------(9)----------|
A---7---6----4--/-6-------°---|
E---x---x----x--/-x-----------|  repeat x 4

I bit my tongue for too long
My patience gets a bit thin
I gotta tell you the way that it is

A
I think you know this is something different we've started

(repeat intro/chorus rif)x2
We're more than ordinary

pre chorus:

A
There's something about the way that the world looks
F#m                        Bm
Brighter when I'm next to you

Chorus:

C#       A2                  Em
No one's gonna love you like I will
F#m                 C#          A2       Em   F#m
Darlin' you can just take take take your time
C#             A2               Em
And I've been burning up like a wildfire
F#m                  C#        A2         Em    F#m
Wishing you would just say say say you're mine, mine

e-----------------------------|
B-------------------------°---|
G-----------(4)---------------|
D--(9)-(9)-------(9)----------|
A---7---6----4--/-6-------°---|
E---x---x----x--/-x-----------|x4

You're mine

Let's get ourselves outta town
We'll take the last train out
I got a million things I wanna know

A
It's easy baby with us there's nowhere we can't go

e-----------------------------|
B-------------------------°---|
G-----------(4)---------------|
D--(9)-(9)-------(9)----------|
A---7---6----4--/-6-------°---|
E---x---x----x--/-x-----------|x2

And this love it doesn't scare me

pre chorus:

A
'Cause I'm running out of reasons not to feel this
F#m                        Bm
I can tell you're dying to try

chorus:

C#       A2                  Em
No one's gonna love you like I will
F#m                 C#          A2       Em   F#m
Darlin' you can just take take take your time
C#             A2               Em
And I've been burning up like a wildfire
F#m                  C#        A2         Em    F#m
Wishing you would just say say say you're mine, mine

e-----------------------------|
B-------------------------°---|
G-----------(4)---------------|
D--(9)-(9)-------(9)----------|
A---7---6----4--/-6-------°---|
E---x---x----x--/-x-----------|x2

You're mine

Bridge:

A
Don't you wonder what it'd be like
F#m
Underneath the streetlights
Bm
You and me
A
With the city wrapped around us
F#m
If no one ever found us
Bm
It's fine with me


repeat intro rif
then chorus
exit with intro rif


------------
chords used:
   A   Bm  C#sus2  Em    F#m   A2 (open A)
e--5---2-----3------0-----2------0----------------|
B--5---3-----4------0-----2------2----------------|
G--6---4-----6------0-----2------2----------------|
D--7---4-----6------2-----4------2----------------|
A--7---2-----4------2-----4------0----------------|
E--5---x-----x------0-----2-----(0)---------------|
            
Hard to play? Try these video lessons and learn fast. | Correct




comments powered by Disqus
↑ Back to top | Tablatures and chords are parodies/interpretations of the original songs. You may use it for private study, scholarship, research or language learning purposes only