» » »

Kate Voegele, Hallelujah Tabs (ver.1)

Artists:  A B C D E F G H I J K L M N O P Q R S T U V W X Y Z # 

Hallelujah Tabs (ver.1)

Kate Voegele Tabs
 Rating:
4.8/5 (30 votes)
Hallelujah lessons Tabs too difficult? Try these video lessons and learn fast
1
                (Live)
Hallelujah (Live)
cover by: Kate Voegele
orig. by: Leonard Cohen

capo: 5

this is from Kate Voegele's live performance of Hallelujah.
it should be 100% correct. it's a very simple song so just
have fun with it. be sure to check out the video on her 

intro:

e|-----------------------------------------------------|  
B|-------1-----------1------------1-----------1--------|   
G|-----0---0-------2---2--------0---0-------2---2------|   
D|---2-----------2------------2-----------2------------|   
A|-3---------2-0----------2-3---------2-0----------2---|   
E|-----------------------------------------------------| x2

verse:

e|-----------------------------------------------------|  
B|-------1-----------1------------1-----------1--------|   
G|-----0---0-------2---2--------0---0-------2---2------|   
D|---2-----------2------------2-----------2------------|   
A|-3---------2-0----------2-3---------2-0----------2---|   
E|-----------------------------------------------------|

e|-------1-----------1---------------------------------|
B|-----1---1-------1---1-----------1-----------0-------|
G|---2-------2---2-------2-------0---0-------0---0-----|
D|-3-----------3-----------3---2-------2---0-------0---|
A|---------------------------3-------------------------|
E|---------------------------------------3-------------|

e|-------------------------------------------1---------|
B|-------1---------1-------------1---------1---1-------|
G|-----0---0-----2-------0-----2---2-----2-------2-----|
D|---2-------2-3-------0-----2-------2-3---------------|
A|-3-----------------------0---------------------------|
E|-------------------3---------------------------------|

e|-----------------------------------------------------|
B|-------1-----------------------1-----------1---------|
G|-----0---0---------0---------2---2-------2---2-------|
D|---0-------0-----2---2-----2-------2---2-------2-----|
A|---------------2-------2-0-----------0---------------|
E|-3-----------0---------------------------------------|

chorus:

e|-------1-----------1---------------------------------|
B|-----1---1-------1---1---------1-----------1---------|
G|---2-------2---2-------2-----2---2-------2---2-------|
D|-3-----------3-------------2-------2---2-------2-----|
A|-------------------------0-----------0---------------|
E|-----------------------------------------------------|

e|-------1-----------1---------------------------------|
B|-----1---1-------1---1---------1-----------0---------|
G|---2-------2---2-------2-----0---0-------0---0-------|
D|-3-----------3-------------2-------2---0-------0-----|
A|-------------------------3---------------------------|
E|-------------------------------------3---------------|

interlude:

e|-------0-----3-----0--------------------------|
B|-----1-----1-----1---------1-----1h3-----1----|
G|---2-----2-----2---------2-----2-------2------|
D|-3---------------------2-----2-------2--------|
A|---------------------0------------------------|
E|----------------------------------------------| x2

e|-------1-----------1---------------------------------|
B|-----1-----1-----1-----1-------0-----0h1-----1-----0-|
G|---2-----2-----2-----2-------0-----0-------0-----0---|
D|-3-----------3-------------0-----0-------0-----0-----|
A|-----------------------------------------------------|
E|-------------------------3---------------------------|

outro:
                                       (slow down)
e|-------0-----3-----0------------------------------|
B|-----1-----1-----1---------0-----0h1-----0h1------|
G|---2-----2-----2---------0-----0-------0----------|
D|-3---------------------0-----0-------0------------|
A|--------------------------------------------------|
E|---------------------3----------------------------|

e|--0--|
B|--1--|
G|--0--|
D|--2--|
A|--3--|
E|--0--| (strum)

i heard there was a secret chord
that david played and it pleased the lord
but you don't really care for music do you?
it goes like this the fourth the fifth
the minor fall and the major lift
the baffled king composin' hallelujah
hallelujah, hallelujah, hallelujah, hallelujah

your faith was strong but you needed proof
you saw her bathing on the roof
her beauty in the moonlight overthrew you
she tied you to a kitchen chair
she broke your throne, she cut your hair
and from your lips she drew the hallelujah
hallelujah, hallelujah, hallelujah, hallelujah

baby, i've been here before
i've seen this room, i've walked this floor
i used to live alone before i knew you
and i've seen your flag on the marble arch
love is not a victory march
it's a cold and it's a broken hallelujah
hallelujah, hallelujah, hallelujah, hallelujah

(interlude)

there was a time you let me know
what's really going on below
but now you never show it to me do you?
but remember when i moved in you
the holy dark was moving too
and every breath we drew was hallelujah
hallelujah, hallelujah, hallelujah, hallelujah

maybe there is a god above
but all i've ever learned from love
was how to shoot somebody who outdrew you
and it's not a cry that you hear at night
it's not somebody who's seen the light
it's a cold and it's a broken hallelujah
hallelujah, hallelujah, hallelujah, hallelujah

hallelujah, hallelujah, hallelujah, hallelujah
            
Submit corrections

comments powered by Disqus
↑ Back to top | Kate Voegele Tabs for Hallelujah. Lyrics for acoustic guitar and electric guitar. 1 Tablatures and chords are parodies/interpretations of the original songs. You may use it for private study, scholarship, research or language learning purposes only