» » »

99 Times Tabs (ver.1)

Artists:  A B C D E F G H I J K L M N O P Q R S T U V W X Y Z # 

99 Times Tabs (ver.1)

Kate Voegele
Rating:
5/5 (3 votes)

Hard to play? Try these video lessons and learn fast.
                “99 Times”
Kate Voegele


Standard Tuning (EADEGBe)
Key of Em (or G)

This is the exact tab for the acoustic version of “99 Times.” I got it from
watching Kate Voegele’s instructional video. Enjoy!

You can watch the video here:


Intro
e|--------------------------------------------------------|
B|----------------3-3-3--3-3------------------3-3-3--3-3--|
G|----------------4-4-4--4-4------------------4-4-4--4-4--|
D|--2-2-2--2-2-2--4-4-4--4-4----2-2-2--2-2-2--4-4-4--4-4--|
A|--2-2-2--2-2-2--2-2-2--2-2----2-2-2--2-2-2--2-2-2--2-2--|
E|--0-0-0--0-0-0----------------0-0-0--0-0-0--------------|


Verse
e|-------------------------------------------------|
B|----------------3-3-3--3-3-----------------------|
G|----------------4-4-4--4-4--5-5-5--5-5-5--7-7-7--|
D|--2-2-2--2-2-2--4-4-4--4-4--5-5-5--5-5-5--7-7-7--|
A|--2-2-2--2-2-2--2-2-2--2-2--3-3-3--3-3-3--5-5-5--|
E|--0-0-0--0-0-0-----------------------------------|


Pre-Chorus
e|-----------------------------|
B|--------3-3-3-3--------------|
G|--------4-4-4-4-5-5-5-5-777--|
D|--7-7-7-4-4-4-4-5-5-5-5-777--|
A|--7-7-7-2-2-2-2-3-3-3-3-555--|
E|--5-5-5----------------------|


Chorus
e|--------------------------2-2-2-2--|
B|----------1-1-1-1-1-1-1-1-3-3-3-3--|
G|----------2-2-2-2-0-0-0-0-2-2-2-2--|		(2x)
D|--2-2-2-2-2-2-2-2-2-2-2-2----------|
A|--2-2-2-2-0-0-0-0-3-3-3-3----------|
E|--0-0-0-0--------------------------|


2nd Intro
e|--------------------------------------------------------|
B|----------------3-3-3--3-3------------------3-3-3--3-3--|
G|----------------4-4-4--4-4------------------4-4-4--4-4--|
D|--2-2-2--2-2-2--4-4-4--4-4----2-2-2--2-2-2--4-4-4--4-4--|
A|--2-2-2--2-2-2--2-2-2--2-2----2-2-2--2-2-2--2-2-2--2-2--|
E|--0-0-0--0-0-0----------------0-0-0--0-0-0--------------|


2nd Verse
e|---------------------------------------------------|
B|----------------3-3-3--3-3-------------------------|
G|----------------4-4-4--4-4--5-5-5--5-5-5--7-7-7—7--|		(2x)
D|--2-2-2--2-2-2--4-4-4--4-4--5-5-5--5-5-5--7-7-7—7--|
A|--2-2-2--2-2-2--2-2-2--2-2--3-3-3--3-3-3--5-5-5—5--|
E|--0-0-0--0-0-0-------------------------------------|


Pre-Chorus
e|-----------------------------|
B|--------3-3-3-3--------------|
G|--------4-4-4-4-5-5-5-5-777--|
D|--7-7-7-4-4-4-4-5-5-5-5-777--|
A|--7-7-7-2-2-2-2-3-3-3-3-555--|
E|--5-5-5----------------------|


Chorus
e|--------------------------2-2-2-2--|
B|----------1-1-1-1-1-1-1-1-3-3-3-3--|
G|----------2-2-2-2-0-0-0-0-2-2-2-2--|		(2x)
D|--2-2-2-2-2-2-2-2-2-2-2-2----------|
A|--2-2-2-2-0-0-0-0-3-3-3-3----------|
E|--0-0-0-0--------------------------|


Bridge
e|-----------------------------------2-2-22-2-2-2-22------------|
B|--1-1-11-1-1-1-11------------------3-3-33-3-3-3-33------------|
G|--0-0-00-0-0-0-00------------------2-2-22-2-2-2-22------------|
D|--2-2-22-2-2-2-22--2-2-22-2-2-2-22----------------------------|
A|--3-3-33-3-3-3-33--2-2-22-2-2-2-22----------------------------|
E|-------------------0-0-00-0-0-0-00----------------------------|

e|-------------------|
B|-------------------|
G|-------------------|		(2x)
D|--2-2-22-2-2-2-22--|
A|--2-2-22-2-2-2-22--|
E|--0-0-00-0-0-0-00--|


Chorus
e|--------------------------2-2-2-2--|
B|----------1-1-1-1-1-1-1-1-3-3-3-3--|
G|----------2-2-2-2-0-0-0-0-2-2-2-2--|		(4x)
D|--2-2-2-2-2-2-2-2-2-2-2-2----------|
A|--2-2-2-2-0-0-0-0-3-3-3-3----------|
E|--0-0-0-0--------------------------|


Outro
e|--------------------------2-2-2-2--|
B|----------1-1-1-1-1-1-1-1-3-3-3-3--|
G|----------2-2-2-2-0-0-0-0-2-2-2-2--|		(2x)
D|--2-2-2-2-2-2-2-2-2-2-2-2----------|
A|--2-2-2-2-0-0-0-0-3-3-3-3----------|
E|--0-0-0-0--------------------------|
            
Hard to play? Try these video lessons and learn fast. | Correct




comments powered by Disqus
↑ Back to top | Tablatures and chords are parodies/interpretations of the original songs. You may use it for private study, scholarship, research or language learning purposes only