» » »

Kate Rusby, Underneath The Stars Tabs (ver.2)

Artists:  A B C D E F G H I J K L M N O P Q R S T U V W X Y Z # 

Underneath The Stars Tabs (ver.2)

Kate Rusby Tabs
 Rating:
4.2/5 (5 votes)
Underneath The Stars lessons Tabs too difficult? Try these video lessons and learn fast
1
                (Intro)

Standard Tuning
NB: This is how she plays it live; probably because it's easier to sing at the same time 
this one. I'll put the alternate underneath.


      C           F7/A          A          G

|--------0----------1-0-----------0-----------0----|
|-------------------0-0---------------------0------|
|------0----------2-------------0---------0--------|
|----5----------3----------------------------------|
|--3--------------------------7--------------------|
|---------------------------5-----------5----------|

Alternate:

DADGBE [Drop D]

|--------0---------------------0---------0----|
|--------------------------------------0------|
|------0-----------10-9------0-------0--------|
|----5-----------7----------------------------|
|--3-----------8-----------7------------------|
|------------------------7---------5----------|
            
Submit corrections

comments powered by Disqus
↑ Back to top | Kate Rusby Tabs for Underneath The Stars. Lyrics for acoustic guitar and electric guitar. 1 Tablatures and chords are parodies/interpretations of the original songs. You may use it for private study, scholarship, research or language learning purposes only