» » »

Kate Rusby, Underneath The Stars Tabs (ver.1)

Artists:  A B C D E F G H I J K L M N O P Q R S T U V W X Y Z # 

Underneath The Stars Tabs (ver.1)

Kate Rusby Tabs
 Rating:
4.4/5 (7 votes)
Underneath The Stars lessons Tabs too difficult? Try these video lessons and learn fast
1
                -------------------------------------------------------------------------------
                  Underneath the stars by Kate Rusby
-------------------------------------------------------------------------------



Tuning: DADGBD  (This song is played with a capo on 5th fret.)


     C                F                Am7              G                
1  D|----------------|----------------|----------------|----------------|
   B|----------------|--------1---0---|----------------|----------------|
   G|------------0---|----------------|------------0---|------------0---|  Intro
   D|--------0-------|----2-----------|--------0-------|--------4-------|   x 2
   A|----5-----------|3---------------|----2-----------|----5-----------|
   D|5---------------|----------------|2---------------|0---------------|



  
     C                F                Am7              G                
2  D|----------------|----------------|----------------|----------------|
   B|----------------|--------1---0---|----------------|----------------|
   G|------------0---|----------------|------------0---|------------0---|
   D|--------0-------|----2-----------|--------0-------|--------4-------|
   A|----5-----------|3---------------|----2-----------|----5-----------|
   D|5---------------|----------------|2---------------|0---------------|

     Un- derneath                 the  stars      I'll  meet  you,

  
     C                F                Am7              G                
3  D|----------------|----------------|----------------|----------------|
   B|----------------|--------1---0---|----------------|----------------|
   G|------------0---|----------------|------------0---|------------0---|
   D|--------0-------|----2-----------|--------0-------|--------4-------|
   A|----5-----------|3---------------|----2-----------|----5-----------|
   D|5---------------|----------------|2---------------|0---------------|

     Un-     der-neath            the  stars      I'll  greet  you,


  
     C                F                Am7              G                
4  D|----------------|----------------|----------------|----------------|
   B|----------------|--------1---0---|----------------|----------------|
   G|------------0---|----------------|------------0---|------------0---| (x2 v3&v4)
   D|--------0-------|----2-----------|--------0-------|--------4-------|
   A|----5-----------|3---------------|----2-----------|----5-----------|
   D|5---------------|----------------|2---------------|0---------------|

         And there be-neath        the stars   I'll     leave  you, Be-

     F                                 G                             
5  D|----------------|----------------|----------------|
   B|------------1---|------------1---|------------3---|
   G|--------0-------|--------0-------|--------0-------|
   D|----2-----------|----2-----------|----4-----------|
   A|3---------------|3---------------|5---------------|
   D|----------------|----------------|----------------|

     fore      you   go       of your  own        free 


     C                F                Am7              G                
6  D|----------------|----------------|----------------|----------------|
   B|----------------|--------1---0---|----------------|----------------|
   G|------------0---|----------------|------------0---|------------0---|
   D|--------0-------|----2-----------|--------0-------|--------4-------|
   A|----5-----------|3---------------|----2-----------|----5-----------|
   D|5---------------|----------------|2---------------|0---------------|

     will.                                 Go      gen-     tly.


   2  Underneath the stars you met me
   3  Underneath the stars you left me 
   4  I wonder if the stars regret me
   5  At least you'll go of your own free 
   6  will, Go gently

   2  Here beneath the stars I'm landing
   3  And here beneath the stars not ending
   4  Why on earth am I pretending?
   4  I'm here again, the stars befriending
   5  They come and go of their own free 
   6  will, Go gently
   6  Go gently

   2  Underneath the stars you met me
   3  And Underneath the stars you left me 
   4  I wonder if the stars regret me
   4  I'm sure they'd like me if they only met me
   5  They come and go of their own free 
   6  will, Go gently
   6  Go gently
   6  Go gently
            
Submit corrections

comments powered by Disqus
↑ Back to top | Kate Rusby Tabs for Underneath The Stars. Lyrics for acoustic guitar and electric guitar. 1 Tablatures and chords are parodies/interpretations of the original songs. You may use it for private study, scholarship, research or language learning purposes only