» » »

Kate Rusby, Jolly Ploughboys Tabs (ver.1)

Artists:  A B C D E F G H I J K L M N O P Q R S T U V W X Y Z # 

Jolly Ploughboys Tabs (ver.1)

Kate Rusby Tabs
 Rating:
4/5 (4 votes)
Jolly Ploughboys lessons Tabs too difficult? Try these video lessons and learn fast
                -------------------------------------------------------------------------------
-------------------------------------------------------------------------------

Tuning: DADGBd
Time Signature: 3/4
Notes: Strummed in standard 3/4 time.



       INTRO

       G               D               Em              C
     d|0----0----0----|0----0----0----|0----0----0----|0----0----0----|
     B|0----0----0----|3----3----3----|0----0----0----|1----1----1----|
  _  G|0----0----0----|0----0----0----|0----0----0----|0----0----0----|
 |   D|0----0----0----|4----4----4----|0----0----0----|2----2----2----|
 |   A|5----5----5----|5----5----5----|2----2----2----|3----3----3----|
 |   D|5----5----5----|0----0----0----|2----2----2----|0----0----0----|
 |     ^    ^    ^     ^    ^    ^     ^    ^    ^     ^    ^    ^     
 |
 |
 |      G               D               Em              C
 |   d|0----0----0----|0----0----0----|0----0----0----|0----0----0----|
 |   B|0----0----0----|3----3----3----|0----0----0----|1----1----1----|
 |   G|0----0----0----|0----0----0----|0----0----0----|0----0----0----|
 |_  D|0----0----0----|4----4----4----|0----0----0----|2----2----2----|
     A|5----5----5----|5----5----5----|2----2----2----|3----3----3----|
     D|5----5----5----|0----0----0----|2----2----2----|0----0----0----|
       ^    ^    ^     ^    ^    ^     ^    ^    ^     ^    ^    ^     



       START   

       G               D               Em              D
     d|0----0----0----|0----0----0----|0----0----0----|0----0----0----|
     B|0----0----0----|3----3----3----|0----0----0----|3----3----3----|
     G|0----0----0----|0----0----0----|0----0----0----|0----0----0----|
     D|0----0----0----|4----4----4----|0----0----0----|4----4----4----|
     A|5----5----5----|5----5----5----|2----2----2----|5----5----5----|
     D|5----5----5----|0----0----0----|2----2----2----|0----0----0----|
       ^    ^    ^     ^    ^    ^     ^    ^    ^     ^    ^    ^     
It was early     one   morning  at the break  of the   day       The



       G               Em              C               D
     d|0----0----0----|0----0----0----|0----0----0----|0----0----0----|
     B|0----0----0----|0----0----0----|1----1----1----|3----3----3----|
     G|0----0----0----|0----0----0----|0----0----0----|0----0----0----|
     D|0----0----0----|0----0----0----|2----2----2----|4----4----4----|
     A|5----5----5----|2----2----2----|3----3----3----|5----5----5----|
     D|5----5----5----|2----2----2----|0----0----0----|0----0----0----|
       ^    ^    ^     ^    ^    ^     ^    ^    ^     ^    ^    ^     
       farmer    came  to   us   and   this he   did   say       come

 

       G               D                    Em              D
     d|0----0----0----|0-------0------0----|0----0----0----|0----0----0----|
     B|0----0----0----|3-------3------3----|0----0----0----|3----3----3----|
     G|0----0----0----|0-------0------0----|0----0----0----|0----0----0----|
     D|0----0----0----|4-------4------4----|0----0----0----|4----4----4----|
     A|5----5----5----|5-------5------5----|2----2----2----|5----5----5----|
     D|5----5----5----|0-------0------0----|2----2----2----|0----0----0----|
       ^    ^    ^     ^       ^      ^     ^    ^    ^     ^    ^    ^     
       rise up   my    fellows with   the   best of   good  will      your



       G               Em              C         D     
     d|0----0----0----|0----0----0----|0----0----0----|
     B|0----0----0----|0----0----0----|1----1----3----|
     G|0----0----0----|0----0----0----|0----0----0----|
     D|0----0----0----|0----0----0----|2----2----4----|
     A|5----5----5----|2----2----2----|3----3----5----|
     D|5----5----5----|2----2----2----|0----0----0----|
       ^    ^    ^     ^    ^    ^     ^    ^    ^     
       horses    need  something their bellies   to


       G               D               Em              C
     d|0----0----0----|0----0----0----|0----0----0----|0----0----0----|
     B|0----0----0----|3----3----3----|0----0----0----|1----1----1----|
     G|0----0----0----|0----0----0----|0----0----0----|0----0----0----|
     D|0----0----0----|4----4----4----|0----0----0----|2----2----2----|
     A|5----5----5----|5----5----5----|2----2----2----|3----3----3----|
     D|5----5----5----|0----0----0----|2----2----2----|0----0----0----|
       ^    ^    ^     ^    ^    ^     ^    ^    ^     ^    ^    ^     
       fill

       G               D               Em              C
     d|0----0----0----|0----0----0----|0----0----0----|0----0----0----|
     B|0----0----0----|3----3----3----|0----0----0----|1----1----1----|
     G|0----0----0----|0----0----0----|0----0----0----|0----0----0----| BACK TO
     D|0----0----0----|4----4----4----|0----0----0----|2----2----2----| START
     A|5----5----5----|5----5----5----|2----2----2----|3----3----3----|
     D|5----5----5----|0----0----0----|2----2----2----|0----0----0----|
       ^    ^    ^     ^    ^    ^     ^    ^    ^     ^    ^    ^     




     When four o'colock comes, me boys, it's up we do rise
     And off to the stables we merrily flies.
     With a-rubbin' and scrubbin' our horses we'll go
     For we're all jollly fellows that follows the plough.

     When six o' clock comes, me boys, at breakfast we'll meet,
     And cold beef and pork we'll heartily eat.
     With a piece in our pockets, to the fields we do go
     For we're all jolly fellows that follows the plough.

     The farmer and this he did say,
     What have you been doing this long summer's day?
     You've not ploughed your acre, I'll swear and I'll vow,
     You are all lazy fellows that follows the plough!

     Then up spoke our carter and this he did cry,
     We have all ploughed our acre you tell us a lie.
     We've all ploughed our acre, I'll swear and I'll vow,
     We are all jolly fellows that follows the plough

     Then up spoke the farmer and laughed at the joke,
     Oh it's gone half past two boys it's time to unyoke,
     Unharness your horses and rub them down well,
     And I'll give you a jug of my very best ale.

     So come all you young ploughboys, where e're you may be.
     Come take this advice and be ruled by me
     Never fear any master where e're you may go,
     For we're all jolly fellows that follows the plough.





| /  slide up
| \  slide down
| h  hammer-on
| p  pull-off
| ~  vibrato
| +  harmonic
| x  Mute note
| ^  Beat Indicator
===============================================================================
            
Submit corrections

comments powered by Disqus
↑ Back to top | Kate Rusby Tabs for Jolly Ploughboys. Lyrics for acoustic guitar and electric guitar. Tablatures and chords are parodies/interpretations of the original songs. You may use it for private study, scholarship, research or language learning purposes only