» » »

Kate Miller-heidke, The Tiger Inside Will Eat The Child Tabs (ver.1)

Artists:  A B C D E F G H I J K L M N O P Q R S T U V W X Y Z # 

The Tiger Inside Will Eat The Child Tabs (ver.1)

Kate Miller-heidke Tabs
 Rating:
4/5 (4 votes)
The Tiger Inside Will Eat The Child lessons Tabs too difficult? Try these video lessons and learn fast
1
                                
                  ~The Tiger Inside will eat the Child~

Tuning: Capo on fret 6

Hey guys, this is my first attempt at tabbing a song by just listening and i'm 
only 13, so yeah. Anyway, Enjoy.

INTRO:

Am--0------0----0-------0---0--------0---0---------0---0------|
Dm------------------------------------------------------------|
Gm------------------------------------------------------------|
Cm--------------------------------------------2-----------1---| x 1 
F-------------------5------------2----------------------------|
Am-----4------------------------------------------------------|

VERSE:

Am--0-------0---0-----0---------------------------------------|
Dm------------------------------------------------------------|
Gm------------------------------------------------------------|
Cm-----1-----------1-----------1------------------------------|  x 8 
F-------------------------0-----------------------------------|
Am------------------------------------------------------------|

BRIDGE:

Am------------------------------------------------------------|
Dm------------------------------------------------------------|
Gm------------------------------------------------------------|
Cm----4------4------2-----1-----------------------------------|  x 4
F--------5------5------5-----5--------------------------------|
Am------------------------------------------------------------|


CHORUS: 

Am------------------------------------------------------------|          
Dm------------------------------------------------------------|
Gm------2--------4-------4---------9------------9-------------|
Cm---1-----1---------2---------9------9-----9-----9-----------| x 2
F-------------------------------------------------------------|
Am------------------------------------------------------------|

VERSE:

(this verse is still played with the capo but in the shape of these normal chords)

E = ---------- Amin = ---------- Dmin = ---------- C = --2-------
    -----2----        ----------        -----7----     ------4--
    -----2----        --2-------        -----7----     ------4---
    --1-------        -------4--        --6-------     ----------
    ----------        ----------        ----------     ----------
    ----------        ----------        ----------     ----------



 E / / / / | / / / / | Amin / / / / | E / / / / | x 2?

 BRIDGE:

 E / / | Amin / / | E / / | Dmin / / |  x 4

 CHORUS: 
 -----------------------------------------------------------------|
 ----------------------------------------------------2-----0------|
 -----------------------------------------4-----2-----------------|
 ----1--2--1----1--1--1--4--1----x--7-----------------------------|
 -----------------------------------------------------------------|
 -----------------------------------------------------------------|

 E / / | Amin / / | E / / | Dmin / / | x 3

 E / / | Amin / / |
 
 E / / | Amin / / | E / / | Dmin / / | x 4

 E / / / / | Amin / / / / | x 4

 C / / / / |

 E / / / / | Amin / / / / | x 4


 END

 Sorry, i may have made a lot of mistakes.
 ~Sallad~
            
Submit corrections

comments powered by Disqus
↑ Back to top | Kate Miller-heidke Tabs for The Tiger Inside Will Eat The Child. Lyrics for acoustic guitar and electric guitar. 1 Tablatures and chords are parodies/interpretations of the original songs. You may use it for private study, scholarship, research or language learning purposes only