» » »

Space They Cannot Touch Tabs (ver.1)

Artists:  A B C D E F G H I J K L M N O P Q R S T U V W X Y Z # 

Space They Cannot Touch Tabs (ver.1)

Kate Miller-heidke
Rating:
5/5 (2 votes)

Hard to play? Try these video lessons and learn fast.
                Space They Cannot Touch – performed by Kate Miller-Heidke

Capo: 6

Intro:

-------------------------------------------------------------------------------|
---3----3--3-3----3-3-3-3-3-3-3-3-----3--3--3--3-3-3----3-3-3-3----------------|
---0----0--0-0----0-2-4-2-0-0-0-0-----0--2--0--0-0-0----0-0-0-0----------------|
---0----0--0-0----0-0-0-0-4-2-0-2-----0--0--0--0-0-0-2--2-2-2-0----------------|
---x----2--3-3----0-3-3-3-3-3-3-3-----2--0--x--x-x-x----x-x-x-x----------------|
---3-----------------------------------0--2--3--3-3-3----3-3-3-3---------------|


Verse 1 (and 2):

-----------------------------------------------------------------------| (x2)
---3----3----3-------------------------3--3--3-------------------------|
---0----0----0-------------------------0--2--0-------------------------|
---0----0----0-------------------------0--0--0-------------------------|
---x----2----3-------------------------2--0--x----------- -------------|
---3-----------------------------------0--2--3-------------------------|
How's my luck? but some-how
I'm with you let's leave now


---3----2----3-------------------------3--2--3-------------------------|
---3----3----3-------------------------3--3--3-------------------------|
---0----2----0-------------------------0--2--0-------------------------|
---0----0----0-------------------------0--0--0-------------------------|
---x----2----3-------------------------2--0--x----------- -------------|
---3-----------------------------------0--2--3-------------------------|
Let's leave them and their point of view

-----------------------------------------------------------------------|
---3----3----3-------------------------3--3--3-------------------------|
---0----0----0-------------------------0--2--0-------------------------|
---0----0----0-------------------------0--0--0-------------------------|
---x----2----3-------------------------2--0--x----------- -------------|
---3-----------------------------------0--2--3-------------------------|
My favourite place Is me and you


----------------------------------------------------------------------------|
-3--3--3-----3--3--3----------3---------------------------------------------|
-0--2--0-----0--2--0----------2---------------------------------------------|
-0--0--0-----0--0--0----------0---------------------------------------------|
-2--0--x-----2--0--x----------0---------------------------------------------|
-0--2--3-----0--2--3--------------------------------------------------------|
I just hope I am good enough to


Verse 3 :
------------------------------------------------------------------------------|(x2)
---3----3--3-3----3-3-3-3-3-3-3-3-----3--3--3--3-3-3----3-3-3-3---------------|
---0----0--0-0----0-2-4-2-0-0-0-0-----0--2--0--0-0-0-2--2-2-2-0---------------|
---0----0--0-0----0-0-0-0-4-2-0-2-----0--0--0--0-0-0----0-0-0-0---------------|
---x----2--3-3----0-3-3-3-3-3-3-3-----2--0--x--x-x-x----x-x-x-x---------------|
---3-----------------------------------0--2--3--3-3-3----3-3-3-3--------------|
Morning sun warms our skin
Distant sounds etc…


---3----2--3-3----3-3-3-2-2-2-0-0---------------------------------------------|
---3----3--3-3----3-3-3-3-3-3-3-3-----3--3--3--3-3-3----3-3-3-3---------------|
---0----2--0-0----0-0-0-0-0-0-0-0-----0--2--0--0-0-0-2--2-2-2-0---------------|
---0----0--0-0----0-0-0-0-0-0-0-0-----0--0--0--0-0-0----0-0-0-0---------------|
---x----2--3-3----3-3-3-3-3-3-3-3-----2--0--x--x-x-x----x-x-x-x---------------|
---3-----------------------------------0--2--3--3-3-3----3-3-3-3--------------|

Outro:
(actual frets on 1st and 2nd strings)

----16--16--16---16--16--16--16-------|
----14--14--14---13 --14--14--14------|
-----0---0---0----0----0---0---0------|
--------------------------------------|
--------------------------------------|
--------------------------------------|
            
Hard to play? Try these video lessons and learn fast. | Correct




comments powered by Disqus
↑ Back to top | Tablatures and chords are parodies/interpretations of the original songs. You may use it for private study, scholarship, research or language learning purposes only