» » »

Make It Last Tabs (ver.1)

Artists:  A B C D E F G H I J K L M N O P Q R S T U V W X Y Z # 

Make It Last Tabs (ver.1)

Kate Miller-heidke
Rating:
0/5 (0 votes)

Hard to play? Try these video lessons and learn fast.
                Words as performed by Kate Miller-Heidke

Please note: this song is played with a capo on the second fret.
In the tab, chords that are like OPEN chords, or notes close to the capo are tabbed as 
you were playing WITHOUT capo, chords that are further up the neck are written as the 
frets.
Notes that are ACTUAL frets are marked with an ASTERISK. *
In hindsight I would have written it all as if you weren't using a capo, but I don't 
time right now to edit it further. Anyone keen to adjust it is more than welcome. Anyway, 
you don't have one buy a capo, it'll change your life.

Capo On 2
Note * = actual fret

Intro:
F#m C# C#/F F#m (x2)
* * *
--0-0-0--0--0-0-0----0-0-0--0--0-0-0----0-0-0--0--0-0-0------------9----------9---------|
--0-0-0--0--0-0-0----0-0-0--0--0-0-0----0-0-0--0--0-0-0------------9----9-----10--------|
--0-0-0--0--0-0-0----0-0-0--0--0-0-0----0-0-0--0--0-0-0------------10---10----11--------|
--2-2-2--2--2-2-2----2-2-2--2--2-2-2----2-2-2--2--2-2-2------------11---11----11--------|
--2-2-2--2--2-2-2----2-2-2--2--2-2-2----2-2-2--2--2-2-2------------11---8-----9---------|
--0-0-0--0--0-0-0----0-0-0--0--0-0-0----0-0-0--0--0-0-0------------9--------------------|


Verse:

F#m (strum 2 bars) C#7 (strum 1 bar) F#m (1bar)

-0-----------------0---------------0-------|
-0-----------------0---------------0-------|
-0-----------------2---------------0-------|
-2-----------------1---------------2-------|
-2-----------------2---------------2-------|
-0---------------------------------0-------|
these words working…..


Pre-chorus:
Bm (strum 1 bar)F#m (1bar) C#7 (1) F#m (1bar)

-0------------------0---------0----------0-------|
-1------------------0---------0----------0-------|
-2------------------0---------2----------0-------|
-2------------------2---------1----------2-------|
-0------------------2---------2----------2-------|
--------------------0---------0----------0-------|
think my personality…

Chorus: (ALL TABBED AS ACTUAL FRETS, so fret 2s on open capo!)

F# (m) D7 A#5 C5 (x2)
********************************************************
------------------------------------------------------------------------|
------------------------------------------------------------------------|
-------11-----11--11-10--9--8-7---7--------5--------5-----4-4--5-5------|
-------------------------------------------------------------4-4--5-5---|
-------9-------9---9--8---7--6-5---5----5-5------5-5-------2-2--3-3-----|
---2-2-----2-2----------------------------------------------------------|

the leader…..




Acoustic Guitar break (usually thumbtack piano):


------------------------------------------------------------------9----------9--------|
-----0------------------0-1-0-------------------0----------------9----9----10---------|
---3----3-0----0------3----------3-0----0-----3--3-0---0-------10---10---11-----------|
-------------2------------------------2---------------2--------- 11---11---11---------|
------------------------------------------------------------------11---8----9---------|
------------------------------------------------------------------9-------------------|

Middle 8 and Outro:

------------------------------------------------|
------------------------------------------------|
------------------------------------------------|
------------------------------------------------|
-----2—3—2----2—3—2---2—3-----------------------|
--0------------------------------3—4—3—2-1-0----|


Additional outro figures (us builds up):
Fig1
----------------------------------------------------|
----------------------------------------------------|
-----4—5—4----4—5—4---4—5---------------------------|
----------------------------------------------------|
-----2—3—2----2—3—2---2—3----5--6-5--4-3-2----------|
--0--------------------------------3--4-3--2-1-0----|


Fig2
--------------------------------------------------|
--------------------------------------------------|
-----4--5--4----4--5--4---4—5---------------------|
-----4--5--4----4--5--4---4--5--------------------|
-----2--3--2----2—3--2---2—3----5--6-5--4-3-2-----|
--0—2--3--2----2--3--2---2—3----3--4-3--2-1-0-----|

enjoy =)
            
Hard to play? Try these video lessons and learn fast. | Correct




comments powered by Disqus
↑ Back to top | Tablatures and chords are parodies/interpretations of the original songs. You may use it for private study, scholarship, research or language learning purposes only