» » »

Gods Gift To Women Tabs (ver.1)

Artists:  A B C D E F G H I J K L M N O P Q R S T U V W X Y Z # 

Gods Gift To Women Tabs (ver.1)

Kate Miller-heidke
Rating:
0/5 (0 votes)

Hard to play? Try these video lessons and learn fast.
                Pretty sure this is right, but feel free to correct me.


GODS GIFT TO WOMEN

INTRO

e |----2---------0--------2--------2----------------------------|
A |----3---------0--------2--------3----------------------------|
D |----4---------1--------3--------4----------------------------|
G |----4---------2--------4--------4----------------------------|     x2
B |----2---------2--------4--------2----------------------------|
E |----2---------0--------2--------2----------------------------|


VERSE

"Pale moonlight, neon bright...."
e |----2---------2--------2--------2---------2--------3--------2--|
A |----3---------2--------3--------2---------3--------3--------2--|
D |----4---------3--------4--------3---------4--------5--------3--|
G |----4---------4--------4--------4---------4--------5--------4--|       x2
B |----2---------4--------2--------4---------2--------3--------4--|
E |----2---------2--------2--------2---------2--------3--------2--|

PRE CHORUS

"Studied the practical tactics of pick-ups.."
e |----0---------2--------2--------3--------0--------2-------|
A |----0---------2--------3--------3--------0--------2-------|
D |----1---------3--------4--------0--------1--------3-------|
G |----2---------4--------4--------5--------2--------4-------|
B |----2---------4--------2--------5--------2--------4-------|
E |----0---------2--------2--------3--------0--------2-------|


CHORUS

"Used to being the guy that gets the girl..."
e |----2---------0--------2--------2----------------------|
A |----3---------0--------2--------3----------------------|
D |----4---------1--------3--------4----------------------|
G |----4---------2--------4--------4----------------------|     x2
B |----2---------2--------4--------2----------------------|
E |----2---------0--------2--------2----------------------|

VERSE

"Peacock strut, collar up..."
e |----2---------2--------2--------2---------2--------3--------2----------|
A |----3---------2--------3--------2---------3--------3--------2----------|
D |----4---------3--------4--------3---------4--------5--------3----------|
G |----4---------4--------4--------4---------4--------5--------4----------|       x2
B |----2---------4--------2--------4---------2--------3--------4----------|
E |----2---------2--------2--------2---------2--------3--------2----------|

PRE CHORUS

"Studied the practical tactics of pick-ups.."
e |----0---------2--------2--------3--------0--------2------|
A |----0---------2--------3--------3--------0--------2------|
D |----1---------3--------4--------0--------1--------3------|
G |----2---------4--------4--------5--------2--------4------|
B |----2---------4--------2--------5--------2--------4------|
E |----0---------2--------2--------3--------0--------2------|

CHORUS

"Used to being the guy that gets the girl..."
e |----2---------0--------2--------2----------------------|
A |----3---------0--------2--------3----------------------|
D |----4---------1--------3--------4----------------------|
G |----4---------2--------4--------4----------------------|     x2
B |----2---------2--------4--------2----------------------|
E |----2---------0--------2--------2----------------------|


BRIDGE

"Are you feeling it, feeling the love in the room..."
e |----2-----------------|
A |----3-----------------|
D |----4-----------------|
G |----4-----------------|
B |----2-----------------|
E |----2-----------------|


"Well you're feeling something, anything will do.."
e |----2---------2--------|
A |----2---------3--------|
D |----3---------4--------|
G |----4---------4--------|
B |----4---------2--------|
E |----2---------2--------|


(repeat)

PRE CHORUS

"studied the practical tactics of pick-ups.."
e |----0---------2--------2--------3--------0--------2------|
A |----0---------2--------3--------3--------0--------2------|
D |----1---------3--------4--------0--------1--------3------|
G |----2---------4--------4--------5--------2--------4------|
B |----2---------4--------2--------5--------2--------4------|
E |----0---------2--------2--------3--------0--------2------|


CHORUS

"used to being the guy that gets the girl..."
e |----2---------0--------2--------2----------------------|
A |----3---------0--------2--------3----------------------|
D |----4---------1--------3--------4----------------------|
G |----4---------2--------4--------4----------------------|
B |----2---------2--------4--------2----------------------|
E |----2---------0--------2--------2----------------------|

(repeat till end)
            
Hard to play? Try these video lessons and learn fast. | Correct




comments powered by Disqus
↑ Back to top | Tablatures and chords are parodies/interpretations of the original songs. You may use it for private study, scholarship, research or language learning purposes only