>
 >
Melancholy Melody Lyrics

Melancholy Melody Lyrics Guitar Tabs

Kate Mcgill - Melancholy Melody Lyrics chords, tabs, tablatures, lyrics

Guitar lessons | Add/correct | Request | Top 50 tabs Artists:  A B C D E F G H I J K L M N O P Q R S T U V W X Y Z 0-9

Melancholy Melody Lyrics Guitar Tabs – Kate Mcgill

CD, Sheet music, Poster

Do you like Melancholy Melody Lyrics? Share with your friends now
Tabs
I find this is one of the best song I´ve heard for a long time and that Kate is a great 
singer and excellent songwriter. I was really sad that I couldn´t find the tabs for this 
song so I tried it on my own. It´s both easy and beautiful so enjoy !

And don´t be too critical this is my first tab ;)

Capo on 1 - Standart Tuning (Tabs

Intro
E---------------------------0-------------------------0----------------------|
A--8--------8--------8---------------8---------8---------------8-------------|
D----10-------10-------10-----10-------10--------10----10--------10----------|
G-------10-------10---------------10-------10-------------10---------10------|
B----------------------------------------------------------------------------|
E----------------------------------------------------------------------------|

E----------0----------------------------|
A--8-----------------8-------8----------|
D----10------10-------10-------10-------|
G---------------10-------10-------------|
B---------------------------------------|
E---------------------------------------|

Verse:
E---0------------------------0-------------------------0---------------------|
A-----------8--------8---------------8---------8---------------8-------------|
D----10-------10-------10-----10-------10--------10----10--------10----------|
G-------10-------10---------------10-------10-------------10---------10------|
B----------------------------------------------------------------------------|
E----------------------------------------------------------------------------|
       You     didn´t    want    me     in      your    life          and       that´s     fine
E----------0--------------------------0----------------------8----------------|
A--8-----------------8-------8-----------------8------8-----------------------|
D----10------10-------10-------10------10-------10------10-----10-------------|
G---------------10-------10---------------10-------10--------------10---------|
B-----------------------------------------------------------------------------|
E-----------------------------------------------------------------------------|
                                                                         But     you´ve  
      got    love         why          did
E--8--------8-----0----------------------0--------------------0----|
A--------------------------8-------8-------------8-------8---------|
D----10------10-----10------10------10----10------10------10-------|
G-------10-------------10------10------------10------10------------|
B------------------------------------------------------------------|
E------------------------------------------------------------------|
              you   take  mine
E---------------------0----------------------|
A--------8------8-------------8-------8------|
D--10------10-----10----10-----10------10----|
G-----10-----10------------10-----10---------|
B--------------------------------------------|
E--------------------------------------------|

[ ...and so on... ]

E---------------------8------8------8--------------------------0--------------|
A----5-----5----5-------------------------8--------8------8-----------8-------|
D------7-----7----7----10-----10-----10----10-------10----10----10------------|
G-------7-----7----------10-----10-------------10-----10-----------10---------|
B-----------------------------------------------------------------------------|
E-----------------------------------------------------------------------------|
but  you´re    the            only                      person              that i can       stand

E------------------------------8----8----8-------------------------------------|
A---------8------5----5---5------------------8-----8----8----------------------|
D--10------10-----7----7---7---10---10---10--10----10---10---------------------|
G---10------10-----7----7--------10---10--------10---10------------------------|
B------------------------------------------------------------------------------|
E------------------------------------------------------------------------------|
 and talk to   for    longer                                      than this .

Refrain:
E---0------------------8-----8-----8---------------8------8-----8----------------|
A----------8-----8----------------------5---5---5--------------------------------|
D----10-----10----10---10----10----10---7---7---7---10----10----10---------------|
G------10-----10---------10----10---------7---7--------10----10------------------|
B--------------------------------------------------------------------------------|
E--------------------------------------------------------------------------------|
Please stop                      playing that               Melancholy Melody on
E-------------------8-----8-----8----------------------0----------------------|
A--8----8----8-----------------------8-----8-----8-----------8-----8----------|
D---10---10---10----10----10----10---10----10----10----10----10----10---------|
G-----10---10---------10----10----------10----10----------10----10----10------|
B-----------------------------------------------------------------------------|
E-----------------------------------------------------------------------------|
   my                          heart       strings .

[...and so on...]


The Verse and the Chorus are alway the same so you can figure it out very fast.


Lyrics:
you didn’t want me in your life and that’s fine
but you’ve got love why did you take mine?
you didn’t want to waste a fraction more of your time
on my endless reason and rhymes

but you’re the only person that i can stand to talk to for longer than this

please stop playing that melancholy melody on my heart strings
;cause i’ve been playing that melancholy melody on my heart and it sings
oh oh oh oh

you’re a little messed up with the way you’re thinking
it’s getting worse everytime your big eyes are blinking
remember when i told you about our boat sinking?
well i think you’re the only one left

and yet you’re the only person that i can stand to talk to for longer than this

please stop playing that melancholy melody on my heart strings
’cause i’ve been playing that melancholy melody on my heart and it sings
oh oh oh oh





Comments


Popular Kate Mcgill tabs & chords
Diamonds And Waste Chords
Little Boat Chords
No Ground Chords
Tell You Everything Chords
The Waiting Game Chords
Cursed Ukulele
Diamonds Waste Ukulele
Full To The Brim Ukulele
No Ground Ukulele
The Key Ukulele


Song lyrics



↑ Back to top | Tablatures and chords are parodies/interpretations of the original songs. You may use it for private study, scholarship, research or language learning purposes only
© 2014 AZChords.com Contact us | Privacy policy | DMCA | Add/correct tabs | Request tabs | Top 50 tabs